Song name
# A B C D E F G H I J K L M N O P Q R S T U V W X Y Z

The Irish Front - The Fish That Got Away tab

Band: The Irish Front
Song: The Fish that Got Away
Tabber: shoegazex4@yahoo.com (Raphi)
Tuning: Drop B

http://www.myspace.com/theirishfront

a a# b c c# d d# e f f# g g#

c#[------------------------------------------------]
G#[------------------------------------------------]
E [------------------------------------------------]
B [-----------3---------3-4-5-6---------7/8~-3~----]
F#[-4h5p4---4---4p3p2-----------5p0---4---7~-2~----]
B [-------5-----------5-------------5--------------]
 

c#[------------------------------------------------]
G#[------------------------------------------------]
E [------------------------------------------------]
B [-6-5-4-6-5-4-6-5-4-6-5-4-6-5-4-6----------------]
F#[-5-4-3-5-4-3-5-4-3-5-4-3-5-4-3-5----------------]
B [-6-5-4-6-5-4-6-5-4-6-5-4-6-5-4-6----------------]
 

c#[---------------------------------------------------------]
G#[---------------------------------------------------------]
E [---------------------------------------------------------]
B [-9-8-7-9-8-7-9-8-7-9-8-7-9-8-7-9-8-7-9-8-7-9-8-7-9-8-7-9-]
F#[-8-7-6-8-7-6-8-7-6-8-7-6-8-7-6-8-7-6-8-7-6-8-7-6-8-7-6-8-]
B [-9-8-7-9-8-7-9-8-7-9-8-7-9-8-7-9-8-7-9-8-7-9-8-7-9-8-7-9-]
 

c#[------------------------------------------------]
G#[--(Tremelo)-------------------------------------]
E [------------------------------------------------]
B [---6---5-5---4------6---5-5---4-----------------]
F#[-5---4-----4---3--5---4-----4---3---------------]
B [------------------------------------------------]
 

c#[------------------------------------------------]
G#[---(Tremelo)------------------------------------]
E [-------------------------------4*---------------]
B [---6---5-5---4-----6---5-5---4------------------]
F#[-5---4-----4---3-5---4-----4--------------------]
B [------------------------------------------------]
 

c#[------------------------------------------------]
G#[------------------------------------------------]
E [------------------------------------------------]
B [---9---8-8---6*-2*---9---8-8---9*---------------]
F#[-8---7-----7-------8---7-----7------------------]
B [------------------------------------------------]
 

c#[------------------------------------------------]
G#[------------------------------------------------]
E [------------------------------------------------]
B [---9---8-8---6*-2*---9---8-8---7----------------]
F#[-8---7-----7-------8---7-----7---6--------------]
B [------------------------------------------------]
 

c#[------------------------------------------------]
G#[------------------------------------------------]
E [-----------------------------(x2)---------------]
B [-5-5-5-4/5~-4-4-4-5-5-4/5~----------------------]
F#[-4-4-4-3/4~-3-3-3-4-4-3/4~----------------------]
B [------------------------------------------------]
 

c#[------------------------------------------------------]
G#[------------------------------------------------------]
E [------------------------------------------------------]
B [-0-0-0-0---0-0-0-0-0-0-000----------------------------]
F#[-0-0-0-0---0-0-0-0-0-0-000-------1111-----------------]
B [-0-0-0-0---0-0-0-0-0-0-000--0000------44444444-3333---]
 

c#[------------------------------------------------------]
G#[------------------------------------------------------]
E [------------------------------------------------------]
B [-0-0-0-0---0-0-0-0-0-0-000--888-------------5*--------]
F#[-0-0-0-0---0-0-0-0-0-0-000------888-777-666-----------]
B [-0-0-0-0---0-0-0-0-0-0-000----------------------------]
 

c#[------------------------------------------------------]
G#[------------------------------------------------------]
E [------------------------------------------------------]
B [-0-0-0-0~---0-0-0-0-0-0-000~--0-0-000-000-00000-------]
F#[-0-0-0-0~---0-0-0-0-0-0-000~--0-0-000-000-00000-------]
B [-0-0-0-0~---0-0-0-0-0-0-000~--0-0-000-000-00000-------]
 

c#[------------------------------------------------------]
G#[------------------------------------------------------]
E [------------------------------------------------------]
B [-0-0-0-0---0-0-0-0-0-0-000--0-0-000-000-00000---------]
F#[-0-0-0-0---0-0-0-0-0-0-000--0-0-000-000-00000---------]
B [-0-0-0-0---0-0-0-0-0-0-000--0-0-000-000-00000---------]
 

c#[-------------------------------------------------]
G#[-----------------------------------(x4)----------]
E [-------------------------------------------------]
B [-5/4-4-4-4-4-4-4-8/7/8/7/8/7-6*------------------]
F#[-4/3-3-3-3-3-3-3-7/6/7/6/7/6---------------------]
B [-------------------------------------------------]
 

c#[------------------------------------------------]
G#[------------------------------------------------]
E [------------------------------------------------]
B [-11/10/11/10/11/10/11/10--8/7/8/7/8/7/8/7-------]
F#[-10/9/-10/9-/10/9-/10/9---7/6/7/6/7/6/7/6-------]
B [------------------------------------------------]
 

c#[------------------------------------------------]
G#[------------------------------------------------]
E [------------------------------------------------]
B [-11/10/11/10/11/10/11/10/11~--------------------]
F#[-10/9/-10/9-/10/9-/10/9-/10~--------------------]
B [------------------------------------------------]
 

c#[----------------------------------------------------]
G#[--------------------------------(bass)--------------]
E [-----------------4*b-4*b-4*b------------------------]
B [--------------------------------------------4*b-----]
F#[-----111--------------------------------------------]
B [-000-----444-000------------------------000---------]
 

c#[------------------------------------------------------]
G#[------------------------------------------------------]
E [-----------------4*b-4*b-4*b-----6/9-5-6/12~-12/------]
B [---------------------------------x/x-x-x/x-~-x-/------]
F#[-----111-------------------------4/7-3-4/10~-10/------]
B [-000-----444-000-------------000----------------------]
 

c#[------------------------------------------------------]
G#[------------------------------------------------------]
E [---------------------------------6/9-5-6/12~-12/------]
B [-000-------------000-000-000-000-x/x-x-x/x-~-x-/------]
F#[-000-111---------000-000-000-000-4/7-3-4/10~-10/------]
B [-000-----444-000-000-000-000-000----------------------]
 

c#[------------------------------------------------]
G#[------------------------------------------------]
E [---------------------------(x2)-----------------]
B [-000-000-000-000--000-000-----------------------]
F#[-000-000-000-000--000-000-----------------------]
B [-000-000-000-000--000-000-----------------------]
 
c#[------------------------------------------------]
G#[------------------------------------------------]
E [---------------------------(x2)-----------------]
B [-000---------000--000-000-----------------------]
F#[-000---------000--000-000-----------------------]
B [-000-888-444-000--000-000-----------------------]
Tap to rate this tab
# A B C D E F G H I J K L M N O P Q R S T U V W X Y Z