Song name
# A B C D E F G H I J K L M N O P Q R S T U V W X Y Z

The Jakes - Shake My Hand tab

----------------------------------------------------------------------------
                                                   Shake My Hand - The Jakes
----------------------------------------------------------------------------
Tabbed by:Jose L.
Email:jabaslabas@gmail.com

Tuning:Standard

INTRO:

e|-----------------3-----------7----5-----------7----7-----7------7-----7h10-|
B|-----------------3-----------7----5-----------8----8(x4)-7(x3)--8-----8----|
G|----------4------4----------------------9-----9----9-----7------9-----9----|
D|---5-X-X--5-X-X--5-X-X-5/8-X----X---X-X---X-X---X-X---------------X-X------|
A|---7------5------5---------------------------------------------------------|
E|----------3------3---------------------------------------------------------|

e|-----10-------10----------------------------------------------------------|
B|-----8--(x4)--8------7-----7----------------------------------------------|
G|-----9---------------7-----7----------7-----------------------------------|
D|-X-X------X------X-X---X-X----X-X-7h9---9-7h9-7-9-------------------------|
A|--------------------------------------------------------------------------|
E|--------------------------------------------------------------------------|

Im telling you im okay...
e|--3-------------7-----------10--------------------------------------------|
B|--3-------------8-----------8---------------------------------------------|
G|--4-------------9-----------9-----------11--------------------------------|
D|--5-------------9-----------7-----------12-----(x2)-----------------------|
A|--5-------------7-----------7-----------12--------------------------------|
E|--3-------------------------------------10--------------------------------|

Cause im way down...(Play the intro part)


Dont wait for me hee hee!(lol)...(Chords)
                                  C G B Em D


************************************

| /   slide up
| h   hammer-on
| x   Muted strum


************************************
Tap to rate this tab
 
# A B C D E F G H I J K L M N O P Q R S T U V W X Y Z