The Jb Conspiracy - The Patriot tab

-------------------------------------------------------------------------------
			     THE PATRIOT - The JB Conspiracy
-------------------------------------------------------------------------------

Tabbed by: voyage34

Tuning: Standard

Great song, great band. Can't find a tab or lyrics anywhere, so here's my best
shot. Post up any errors and I'll correct it, but I think this is pretty much it.

If you just want the chords I've put them over the tabs, you can play this song
with the really basic guitar chords (E, G, D etc) but it sounds better with bars.
The rhythm is standard ska, almost always with the strums on the 3rd, 4th and
7th beats of a bar divided into eight beats.

Listen to The JB Conspiracy at http://www.myspace.com/thejbconspiracy

Bass Intro (transcribed for guitar):

  Emi		   Emi		    Emi		     Emi
e|----------------|----------------|----------------|----------------|
B|----------------|----------------|----------------|----------------|
G|----------------|----------------|----------------|----------------|
D|----------------|----------------|----------------|----------------|
A|----------------|----------------|----------------|----------------|
E|0-----7-7-7-7-7-|7-7-3---5-------|0-----3-3-3-3-3-|3-3-3---2---3---|

Guitar Intro (first four bars is just bass intro, then this):

  Emi		   Emi	 	    Emi		     Emi
e|7---------------|(7)-------------|----7-7-----7---|----7-7-----7---|
B|8---------------|(8)-------------|----8-8-----8---|----8-8-----8---|
G|9---------------|(9)-------------|----9-9-----9---|----9-9-----9---|
D|9---------------|(9)-------------|----9-9-----9---|----9-9-----9---|
A|7---------------|(7)-------------|----7-7-----7---|----7-7-----7---|
E|0---------------|(0)-------------|----------------|----------------|

  Emi		   Emi		    Gma		        Gma
e|----7-7-----7---|----7-7-----7---|----10-10-----10---|----10-10-----10---|
B|----8-8-----8---|----8-8-----8---|----10-10-----10---|----10-10-----10---|
G|----9-9-----9---|----9-9-----9---|----12-12-----12---|----12-12-----12---|
D|----9-9-----9---|----9-9-----9---|----12-12-----12---|----12-12-----12---|
A|----7-7-----7---|----7-7-----7---|----10-10-----10---|----10-10-----10---|
E|----------------|----------------|-------------------|-------------------|

  Emi		   Emi		    Gma		        Dma
e|----7-7-----7---|----7-7-----7---|----10-10-----10---|----5-5-----5---|
B|----8-8-----8---|----8-8-----8---|----12-12-----12---|----7-7-----7---|
G|----9-9-----9---|----9-9-----9---|----12-12-----12---|----7-7-----7---|
D|----9-9-----9---|----9-9-----9---|----12-12-----12---|----7-7-----7---|
A|----7-7-----7---|----7-7-----7---|----10-10-----10---|----5-5-----5---|
E|----------------|----------------|-------------------|----------------|

  Emi		   Emi		    Gma		        Gma
e|----7-7-----7---|----7-7-----7---|----10-10-----10---|----10-10-----10---|
B|----8-8-----8---|----8-8-----8---|----10-10-----10---|----10-10-----10---|
G|----9-9-----9---|----9-9-----9---|----12-12-----12---|----12-12-----12---|
D|----9-9-----9---|----9-9-----9---|----12-12-----12---|----12-12-----12---|
A|----7-7-----7---|----7-7-----7---|----10-10-----10---|----10-10-----10---|
E|----------------|----------------|-------------------|-------------------|

  Emi		   Emi		    Gma		        Dma
e|----7-7-----7---|----7-7-----7---|----10-10-----10---|----5-5-----5---|
B|----8-8-----8---|----8-8-----8---|----12-12-----12---|----7-7-----7---|
G|----9-9-----9---|----9-9-----9---|----12-12-----12---|----7-7-----7---|
D|----9-9-----9---|----9-9-----9---|----12-12-----12---|----7-7-----7---|
A|----7-7-----7---|----7-7-----7---|----10-10-----10---|----5-5-----5---|
E|----------------|----------------|-------------------|----------------|

Verse 1:

  Emi		   Emi		    Emi		     Emi
e|----7-7-----7---|----7-7-----7---|----7-7-----7---|----7-7-----7---|
B|----8-8-----8---|----8-8-----8---|----8-8-----8---|----8-8-----8---|
G|----9-9-----9---|----9-9-----9---|----9-9-----9---|----9-9-----9---|
D|----9-9-----9---|----9-9-----9---|----9-9-----9---|----9-9-----9---|
A|----7-7-----7---|----7-7-----7---|----7-7-----7---|----7-7-----7---|
E|----------------|----------------|----------------|----------------|

  Emi		   Emi		    Gma		        Dma
e|----7-7-----7---|----7-7-----7---|----10-10-----10---|----5-5-----5---|
B|----8-8-----8---|----8-8-----8---|----12-12-----12---|----7-7-----7---|
G|----9-9-----9---|----9-9-----9---|----12-12-----12---|----7-7-----7---|
D|----9-9-----9---|----9-9-----9---|----12-12-----12---|----7-7-----7---|
A|----7-7-----7---|----7-7-----7---|----10-10-----10---|----5-5-----5---|
E|----------------|----------------|-------------------|----------------|

Chorus:

  Emi		   Emi		    Dma		     Emi       D#mi
e|----7-7-----7---|----7-7-----7---|----5-5-----5---|----7-7---6-6-6-|
B|----8-8-----8---|----8-8-----8---|----7-7-----7---|----8-8---7-7-7-|
G|----9-9-----9---|----9-9-----9---|----7-7-----7---|----9-9---8-8-8-|
D|----9-9-----9---|----9-9-----9---|----7-7-----7---|----9-9---8-8-8-|
A|----7-7-----7---|----7-7-----7---|----5-5-----5---|----7-7---6-6-6-|
E|----------------|----------------|----------------|----------------|

  Emi		   Emi		    Dma		     Emi
e|7---7-7-----7---|----7-7-----7---|----5-5-----5---|----7-7-----7---|
B|8---8-8-----8---|----8-8-----8---|----7-7-----7---|----8-8-----8---|
G|9---9-9-----9---|----9-9-----9---|----7-7-----7---|----9-9-----9---|
D|9---9-9-----9---|----9-9-----9---|----7-7-----7---|----9-9-----9---|
A|7---7-7-----7---|----7-7-----7---|----5-5-----5---|----7-7-----7---|
E|----------------|----------------|----------------|----------------|

Epic Post-Chorus Horn Line:

  Cma		   Cma		    Emi		     Emi
e|----8-8-----8---|----8-8-----8---|----7-7-----7---|----7-7-----7---|
B|----8-8-----8---|----8-8-----8---|----8-8-----8---|----8-8-----8---|
G|----9-9-----9---|----9-9-----9---|----9-9-----9---|----9-9-----9---|
D|---10-10----10--|---10-10----10--|----9-9-----9---|----9-9-----9---|
A|---10-10----10--|---10-10----10--|----7-7-----7---|----7-7-----7---|
E|----8-8-----8---|----8-8-----8---|----------------|----------------|

  Gma		      Gma      	          Bma	           Bma
e|----10-10-----10---|----10-10-----10---|----7-7-----7---|----7-7-----7---|
B|----12-12-----12---|----12-12-----12---|----7-7-----7---|----7-7-----7---|
G|----12-12-----12---|----12-12-----12---|----8-8-----8---|----8-8-----8---|
D|----12-12-----12---|----12-12-----12---|----9-9-----9---|----9-9-----9---|
A|----10-10-----10---|----10-10-----10---|----9-9-----9---|----9-9-----9---|
E|-------------------|-------------------|----7-7-----7---|----7-7-----7---|

Turnaround:

  Emi
e|0-0-0-0-0-0-0-0-12-12-12-12-12-12-12-12-|
B|0-0-0-0-0-0-0-0-12-12-12-12-12-12-12-12-|
G|----------------------------------------|
D|----------------------------------------|
A|----------------------------------------|
E|----------------------------------------|

Verse 2:

  Emi		   Emi		    Gma		        Dma
e|----7-7-----7---|----7-7-----7---|----10-10-----10---|----5-5-----5---|
B|----8-8-----8---|----8-8-----8---|----12-12-----12---|----7-7-----7---|
G|----9-9-----9---|----9-9-----9---|----12-12-----12---|----7-7-----7---|
D|----9-9-----9---|----9-9-----9---|----12-12-----12---|----7-7-----7---|
A|----7-7-----7---|----7-7-----7---|----10-10-----10---|----5-5-----5---|
E|----------------|----------------|-------------------|----------------|

  Emi		   Emi		    Gma		        Dma
e|----7-7-----7---|----7-7-----7---|----10-10-----10---|----5-5-----5---|
B|----8-8-----8---|----8-8-----8---|----12-12-----12---|----7-7-----7---|
G|----9-9-----9---|----9-9-----9---|----12-12-----12---|----7-7-----7---|
D|----9-9-----9---|----9-9-----9---|----12-12-----12---|----7-7-----7---|
A|----7-7-----7---|----7-7-----7---|----10-10-----10---|----5-5-----5---|
E|----------------|----------------|-------------------|----------------|

  Emi		   Emi	 	    Emi		     Emi       Dma Emi
e|7---------------|(7)-------------|(7)-------------|(7)-------5---7---|
B|8---------------|(8)-------------|(8)-------------|(8)-------7---8---|
G|9---------------|(9)-------------|(9)-------------|(9)-------7---9---|
D|9---------------|(9)-------------|(9)-------------|(9)-------7---9---|
A|7---------------|(7)-------------|(7)-------------|(7)-------5---7---|
E|0---------------|(0)-------------|(0)-------------|(0)---------------|

  Emi		   Emi		    Gma		        Dma
e|----7-7-----7---|----7-7-----7---|----10-10-----10---|----5-5-----5---|
B|----8-8-----8---|----8-8-----8---|----12-12-----12---|----7-7-----7---|
G|----9-9-----9---|----9-9-----9---|----12-12-----12---|----7-7-----7---|
D|----9-9-----9---|----9-9-----9---|----12-12-----12---|----7-7-----7---|
A|----7-7-----7---|----7-7-----7---|----10-10-----10---|----5-5-----5---|
E|----------------|----------------|-------------------|----------------|

Chorus:

  Emi		   Emi		    Dma		     Emi       D#mi
e|----7-7-----7---|----7-7-----7---|----5-5-----5---|----7-7---6-6-6-|
B|----8-8-----8---|----8-8-----8---|----7-7-----7---|----8-8---7-7-7-|
G|----9-9-----9---|----9-9-----9---|----7-7-----7---|----9-9---8-8-8-|
D|----9-9-----9---|----9-9-----9---|----7-7-----7---|----9-9---8-8-8-|
A|----7-7-----7---|----7-7-----7---|----5-5-----5---|----7-7---6-6-6-|
E|----------------|----------------|----------------|----------------|

  Emi		   Emi		    Dma		     Emi
e|7---7-7-----7---|----7-7-----7---|----5-5-----5---|----7-7-----7---|
B|8---8-8-----8---|----8-8-----8---|----7-7-----7---|----8-8-----8---|
G|9---9-9-----9---|----9-9-----9---|----7-7-----7---|----9-9-----9---|
D|9---9-9-----9---|----9-9-----9---|----7-7-----7---|----9-9-----9---|
A|7---7-7-----7---|----7-7-----7---|----5-5-----5---|----7-7-----7---|
E|----------------|----------------|----------------|----------------|

Epic Post-Chorus Horn Line:

  Cma		   Cma		    Emi		     Emi
e|----8-8-----8---|----8-8-----8---|----7-7-----7---|----7-7-----7---|
B|----8-8-----8---|----8-8-----8---|----8-8-----8---|----8-8-----8---|
G|----9-9-----9---|----9-9-----9---|----9-9-----9---|----9-9-----9---|
D|---10-10----10--|---10-10----10--|----9-9-----9---|----9-9-----9---|
A|---10-10----10--|---10-10----10--|----7-7-----7---|----7-7-----7---|
E|----8-8-----8---|----8-8-----8---|----------------|----------------|

  Gma		      Gma      	          Bma	           Bma
e|----10-10-----10---|----10-10-----10---|----7-7-----7---|----7-7-----7---|
B|----12-12-----12---|----12-12-----12---|----7-7-----7---|----7-7-----7---|
G|----12-12-----12---|----12-12-----12---|----8-8-----8---|----8-8-----8---|
D|----12-12-----12---|----12-12-----12---|----9-9-----9---|----9-9-----9---|
A|----10-10-----10---|----10-10-----10---|----9-9-----9---|----9-9-----9---|
E|-------------------|-------------------|----7-7-----7---|----7-7-----7---|

Solos (twice round):

  Emi		   Emi		    Gma		        Gma
e|----7-7-----7---|----7-7-----7---|----10-10-----10---|----10-10-----10---|
B|----8-8-----8---|----8-8-----8---|----12-12-----12---|----12-12-----12---|
G|----9-9-----9---|----9-9-----9---|----12-12-----12---|----12-12-----12---|
D|----9-9-----9---|----9-9-----9---|----12-12-----12---|----12-12-----12---|
A|----7-7-----7---|----7-7-----7---|----10-10-----10---|----10-10-----10---|
E|----------------|----------------|-------------------|-------------------|

  Emi		   Emi		    Cma		       Bma
e|----7-7-----7---|----7-7-----7---|----8-8-----8-----|----7--7------7---|
B|----8-8-----8---|----8-8-----8---|----8-8-----8-----|----7--7------7---|
G|----9-9-----9---|----9-9-----9---|----9-9-----9-----|----8--8------8---|
D|----9-9-----9---|----9-9-----9---|---10-10----10----|----9--9------9---|
A|----7-7-----7---|----7-7-----7---|---10-10----10----|----9--9------9---|
E|----------------|----------------|----8-8-----8-----|----7--7------7---|

Verse 3:

  Emi		   Emi	 	    Emi		     Emi       
e|7---------------|(7)---------7---|----7-------7---|----7-------7---|
B|8---------------|(8)---------8---|----8-------8---|----8-------8---|
G|9---------------|(9)---------9---|----9-------9---|----9-------9---|
D|9---------------|(9)---------9---|----9-------9---|----9-------9---|
A|7---------------|(7)---------7---|----7-------7---|----7-------7---|
E|0---------------|(0)-------------|----------------|----------------|

  Emi		   Emi		    Cma		       Bma
e|----7-7-----7-7-|----7-7-----7-7-|----8-8-----8-8---|----7--7------7---|
B|----8-8-----8-8-|----8-8-----8-8-|----8-8-----8-8---|----7--7------7---|
G|----9-9-----9-9-|----9-9-----9-9-|----9-9-----9-9---|----8--8------8---|
D|----9-9-----9-9-|----9-9-----9-9-|---10-10---10-10--|----9--9------9---|
A|----7-7-----7-7-|----7-7-----7-7-|---10-10---10-10--|----9--9------9---|
E|----------------|----------------|----8-8-----8-8---|----7--7------7---|

Chorus:

  Emi		   Emi		    Dma		     Emi       D#mi
e|----7-7-----7---|----7-7-----7---|----5-5-----5---|----7-7---6-6-6-|
B|----8-8-----8---|----8-8-----8---|----7-7-----7---|----8-8---7-7-7-|
G|----9-9-----9---|----9-9-----9---|----7-7-----7---|----9-9---8-8-8-|
D|----9-9-----9---|----9-9-----9---|----7-7-----7---|----9-9---8-8-8-|
A|----7-7-----7---|----7-7-----7---|----5-5-----5---|----7-7---6-6-6-|
E|----------------|----------------|----------------|----------------|

  Emi		   Emi		    Dma		     Emi
e|7---7-7-----7---|----7-7-----7---|----5-5-----5---|----7-7-----7---|
B|8---8-8-----8---|----8-8-----8---|----7-7-----7---|----8-8-----8---|
G|9---9-9-----9---|----9-9-----9---|----7-7-----7---|----9-9-----9---|
D|9---9-9-----9---|----9-9-----9---|----7-7-----7---|----9-9-----9---|
A|7---7-7-----7---|----7-7-----7---|----5-5-----5---|----7-7-----7---|
E|----------------|----------------|----------------|----------------|

Epic Post-Chorus Horn Line:

  Cma		   Cma		    Emi		     Emi
e|----8-8-----8---|----8-8-----8---|----7-7-----7---|----7-7-----7---|
B|----8-8-----8---|----8-8-----8---|----8-8-----8---|----8-8-----8---|
G|----9-9-----9---|----9-9-----9---|----9-9-----9---|----9-9-----9---|
D|---10-10----10--|---10-10----10--|----9-9-----9---|----9-9-----9---|
A|---10-10----10--|---10-10----10--|----7-7-----7---|----7-7-----7---|
E|----8-8-----8---|----8-8-----8---|----------------|----------------|

  Gma		      Gma      	          Bma	           Bma
e|----10-10-----10---|----10-10-----10---|----7-7-----7---|----7-7-----7---|
B|----12-12-----12---|----12-12-----12---|----7-7-----7---|----7-7-----7---|
G|----12-12-----12---|----12-12-----12---|----8-8-----8---|----8-8-----8---|
D|----12-12-----12---|----12-12-----12---|----9-9-----9---|----9-9-----9---|
A|----10-10-----10---|----10-10-----10---|----9-9-----9---|----9-9-----9---|
E|-------------------|-------------------|----7-7-----7---|----7-7-----7---|

  Cma		   Cma		    Emi		     Emi
e|----8-8-----8---|----8-8-----8---|----7-7-----7---|----7-7-----7---|
B|----8-8-----8---|----8-8-----8---|----8-8-----8---|----8-8-----8---|
G|----9-9-----9---|----9-9-----9---|----9-9-----9---|----9-9-----9---|
D|---10-10----10--|---10-10----10--|----9-9-----9---|----9-9-----9---|
A|---10-10----10--|---10-10----10--|----7-7-----7---|----7-7-----7---|
E|----8-8-----8---|----8-8-----8---|----------------|----------------|

  Gma		      Gma      	          Bma	           Bma
e|----10-10-----10---|----10-10-----10---|----7-7-----7---|----7-7-----7---|
B|----12-12-----12---|----12-12-----12---|----7-7-----7---|----7-7-----7---|
G|----12-12-----12---|----12-12-----12---|----8-8-----8---|----8-8-----8---|
D|----12-12-----12---|----12-12-----12---|----9-9-----9---|----9-9-----9---|
A|----10-10-----10---|----10-10-----10---|----9-9-----9---|----9-9-----9---|
E|-------------------|-------------------|----7-7-----7---|----7-7-----7---|

Ending: 

 Bma              C5  B5  G5  F#5  Emi               Emi
e|----7-7-----7---|----------------|0---------------|(0)---------------|
B|----7-7-----7---|----------------|0---------------|(0)---------------|
G|----8-8-----8---|5---4-----------|0---------------|(0)---------------|
D|----9-9-----9---|5---4---5---4---|2---------------|(2)---------------|
A|----9-9-----9---|3---2---5---4---|2---------------|(2)---------------|
E|----7-7-----7---|--------3---2---|0---------------|(0)---------------|

Lyrics:

Everybody has lost sight,
People are no longer treated right,
Too consumed with what we've got to gain,
Oblivious to it all.

And I see a bemused country,
Torn apart cos we fail to see,
Things of a higher notion, 
Ideals that will set you free.
Well you know we won't believe it,
Don't you know that your pride won't change a thing.

Apathy will tear this country down,
Racist hordes elected in your town,
They say they're patriots but that's a lie,
Protecting their own country but they'd gladly see you die.

They call themselves the BNP,
The National Front is behind a political party,
Agenda's based on their racist views,
Believe the propaganda but you know you're gonna lose.

Well I see a bemused country, torn apart cos we fail to see,
Things of a higher notion, ideals that will set you free.
Well you know we won't believe it,
Don't you know that your pride won't change a thing.

Beware of people creeping in,
Under cover of legitimacy,
They say they have your best interests in mind,
But you're intolerant if you're not there.

I see a bemused country, torn apart cos we fail to see,
Things of a higher notion, ideals that will set you free.
Well you know we won't believe you anyway,
Don't you know that your pride won't change a thing,
You know we won't believe it,
Don't you know that your pride won't change,
Don't you know that your pride won't change a thing.

************************************

| /   slide up
| \   slide down
| h   hammer-on
| p   pull-off
| ~   vibrato
| +   harmonic
| x   Mute note
| b   Bend
| pb  Pre-bend
| br  Bend release
| pbr Pre-bend release
| brb Bend release bend

************************************
Tap to rate this tab
 
# A B C D E F G H I J K L M N O P Q R S T U V W X Y Z