Song name
# A B C D E F G H I J K L M N O P Q R S T U V W X Y Z

The Jealous Sound - Priceless tab

-------------------------------------------------------------------------------
Priceless - The Jealous Sound
-------------------------------------------------------------------------------
Tabbed by: Rawker 1

Listen to the track for the rythym. Catchy and its easy to play.

Email:

Tuning: Standard

VERSE

e|---------------------------------------------------------------------------|
B|---------------------------------------------------------------------------|
G|---11-----11--7-----11-----9-----------------------------------------------|
D|---11--7--11--7-----11--7--9--9--------------------------------------------|
A|----9--7---9--5------9--7--7--9--------------------------------------------|
E|-------5----------------5-----7--------------------------------------------|

PRE-CHORUS

e|---------------------------------------------------------------------------|
B|---------------------------------------------------------------------------|
G|----7----------------------------------------------------------------------|
D|----7---7---9--------------------------------------------------------------|
A|----5---7---9--------------------------------------------------------------|
E|--------5---7--------------------------------------------------------------|


CHORUS

e|---------------------------------------------------------------------------|
B|---------------------------------------------------------------------------|
G|--------7-------9----------------------------------------------------------|
D|----4---7---7---9---9------------------------------------------------------|
A|----4---5---7---7---9------------------------------------------------------|
E|----2-------5-------7------------------------------------------------------|


OUTRO

e|---------------------------------------------------------------------------|
B|---------------------------------------------------------------------------|
G|-----7-----------9---------------------------------------------------------|
D|-----7---4---7---9---9-----------------------------------------------------|
A|-----5---4---7---7---9-----------------------------------------------------|
E|---------2---5-------7-----------------------------------------------------|


| /  slide up
| \  slide down
| h  hammer-on
| p  pull-off
| ~  vibrato
| +  harmonic
| x  Mute note
===============================================================================
Tap to rate this tab
# A B C D E F G H I J K L M N O P Q R S T U V W X Y Z