Song name
# A B C D E F G H I J K L M N O P Q R S T U V W X Y Z

The Jezabels - Shes So Hard tab

http://www.thejezabels.com/


e----------------------|
B----------------------|
G--12----7----2--------|
D--13----8----3--------|
A--13----8----3--------|
E--11----6----1--------|
I will go out, steal birthday cakes, from babyface
I will go out, steal the pinata, if I wanna
All that really matters is love
If it's all that you really care about, then tough


e----------------------|
B----------------------|
G--12----7----2--------|
D--13----8----3--------|
A--13----8----3--------|
E--11----6----1--------|
I'm all out, for the war, I guess love wasn't what I'm looking for
I don't care, when you cry, I think self pity is a state of mind


e------------------------|
B-------------13---------|
G--12----7----12----2----|
D--13----8----12----3----|
A--13----8----10----3----|
E--11----6----------1----|
I'm so hard, I'm so hard, I'm so hard
She's so hard, she's so hard, she's so hard


e----------------------|
B----------------------|
G--12----7----2--------|
D--13----8----3--------|
A--13----8----3--------|
E--11----6----1--------|
And maybe you're just too good for me, good for me
Or maybe you're just no use to me, use to me


e----------------------|
B----------------------|
G--12----7----2--------|
D--13----8----3--------|
A--13----8----3--------|
E--11----6----1--------|


e----------------------|
B----------------------|
G--12----7----2--------|
D--13----8----3--------|
A--13----8----3--------|
E--11----6----1--------|
I'm all out, for the war, I guess love wasn't what I'm looking for
I don't care, when you cry, I think self pity is a state of mind


e------------------------|
B-------------13---------|
G--12----7----12----2----|
D--13----8----12----3----|
A--13----8----10----3----|
E--11----6----------1----|
I'm so hard, I'm so hard, I'm so hard
She's so hard, she's so hard, she's so hard


e------------------------|
B-------------13---------|
G--12----7----12----2----|
D--13----8----12----3----|
A--13----8----10----3----|
E--11----6----------1----| x4


e----------------------|
B----------------------|
G--12----7----2--------|
D--13----8----3--------|
A--13----8----3--------|
E--11----6----1--------|
I'm all out, for the war, I guess love wasn't what I'm looking for
I don't care, when you cry, I think self pity is a state of mind


e------------------------|
B-------------13---------|
G--12----7----12----2----|
D--13----8----12----3----|
A--13----8----10----3----|
E--11----6----------1----|
I'm so hard, I'm so hard, I'm so hard
She's so hard, she's so hard, she's so hard


e------------------------|
B-------------13---------|
G--12----7----12----2----|
D--13----8----12----3----|
A--13----8----10----3----|
E--11----6----------1----|
She's so hard, She's so hard, She's so hard
She's so hard, she's so hard, she's so hard

The F chord is played over to end it.
Tap to rate this tab
 
# A B C D E F G H I J K L M N O P Q R S T U V W X Y Z