The Jezabels - Sahara Mahala tab

I think this is my favourite song off Dark Storm, though it's hard to choose between 
amazing songs which one is just that tad more amazing. Again, this is tabbed to what the 
plays. The last bit can be played as single notes or chords, whichever you prefer.

e------------------------------------------|
B------------------------------------------|
G--8----8--------------3----3--------------|
D--9----9----6----6----4----4----6----6----|
A--9----9----6----6----4----4----6----6----|
E--7----7----4----4----2----2----4----4----|


e------------------------------------------|
B------------------------------------------|
G--3----3--------------1----1--------------|
D--4----4----6----6----2----2----6----6----|
A--4----4----6----6----2----2----6----6----|
E--2----2----4----4--------------4----4----|
How long, its seems I've waited
I've walked a thousand, to see you to heaven, to see you, where heather grows
And I know - know you divide between bringing in the light, playing in the height of the sky
With sweet hope, and playing in the pools where the broken lines of your love meet
You take me on your shoulder, Sahara Mahala


e----------------|
B----------------|
G--8--9--8--8----|
D--8--9--9--9----|
A--6--7--9--9----|
E--------7--7----|
And I know I want to be with you all of my days, on hallowed grounds
But, honey every time we go to gaol, the seeds of doubt come creeping
Just keep moving, on hallowed ground


e--------------------------------------------------------------|
B--------------------------------------------------------------|
G--8----8--------------3----3--------------2----2--------------|
D--9----9----6----6----4----4----6----6----2----2----6----6----|
A--9----9----6----6----4----4----6----6----1----1----6----6----|
E--7----7----4----4----2----2----4----4--------------4----4----|
Oh, good feling, it seems I've waited; the seed, the moment of completeness
Sahara Mahala, Sahara Mahala


e--------------|
B--------------|
G--8--9--8--8--|
D--8--9--9--9--|
A--6--7--9--9--|
E--------7--7--|
I want to be with you all of my days, on hallowed ground
But, honey every time we go to gaol, the seeds of doubt come creeping
Just keep moving, on hallowed ground


e------------------------------------------|
B------------------------------------------|
G--3----3----2----2----3----3----2----2----|
D--4----4----2----2----4----4----2----2----|
A--4----4----1----1----4----4----1----1----|
E--2----2--------------2----2--------------|


e------------------------------------------|
B------------------------------------------|
G------------3----3----2----2----3----3----|
D--4----6----4----4----2----2----4----4----|
A--4----6----4----4----1----1----4----4----|
E--6----4----2----2--------------2----2----|
And I get this in winter
Get these visions, visions
I get the feel you can kill these visions


e--------------|
B--------------|
G--8--9--8--8--|
D--8--9--9--9--|
A--6--7--9--9--|
E--------7--7--|


e--------------|
B--------------|
G--8--9--8--8--|
D--8--9--9--9--|
A--6--7--9--9--|
E--------7--7--|
I want to be with you all of my days, on hallowed ground
But, honey every time we go to gaol, the seeds of doubt come creeping
Just keep moving, on hallowed ground


e----------------------------------------------------------|
B----------------------------------------------------------|
G----------------------------------------------------------|
D----------------------------------------------------------|
A--6----4--4-6-2---2----11----11--9-6-6----6---4--4-6-2----|
E----------------------------------------------------------|
Tap to rate this tab
 
# A B C D E F G H I J K L M N O P Q R S T U V W X Y Z