Song name
# A B C D E F G H I J K L M N O P Q R S T U V W X Y Z

The Jezabels - Be A Star tab

e-----------------------------------------------------------------------------|
B-----------------------------------------------------------------------------|
G-----------------------------------------------------------------------------|
D-----------------------------------------------------------------------------|
A-------------------------------3-33-3-222--------------------------333-3-222-|
E--5-5-555-0-00-00-000-1-1-1111------------5-5-555-0-00-00-000-1--------------|

e-----------------------------------------------------------------------------|
B-----------------------------------------------------------------------------|
G-----------------------------------------------------------------------------|
D-----------------------------------------------------------------------------|
A-------------------------------3-33-3-222--------------------------333-3-222-|
E--5-5-555-0-00-00-000-1-1-1111------------5-5-555-0-00-00-000-1--------------|
With my out of tune guitar, we walk from bar to bar
We were only seventeen, but we were going to be stars
I came across a man, he could stop the world with a clap of his hands

e---------------------------------|
B---------------------------------|
G---------------------------------|
D-----------------------5----7----|
A-----------------------5----7----|
E--5-5-555-0-0-000-1----3----5----|
Said, 'You've got the attitude,' oh who's got the attitude for rock?

e----------------------|
B----------------------|
G------------5----5----|
D--7----3----5----5----|
A--7----3----3----3----|
E--5----1--------------|
But she was never going to be a star
She would swim rivers and climb moutains far away

e------------------------|
B------------------------|
G--10----12----5----5----|
D--10----12----5----5----|
A--8-----10----3----3----|
E------------------------|
But who caught the maid and made her come?

e------------------------------------------|
B------------------------------------------|
G-------5---------5------------------------|
D--3----5----3----5----3----3----5----5----|
A--3----3----3----3----3----3----5----5----|
E--1---------1---------1----1----3----3----|
But she was shining like the rising sun, shining like the rising sun
You shine like the sun to me

e----------------------|
B----------------------|
G-----------------5----|
D--7----2----3----5----|
A--7----2----3----3----|
E--5---------1---------|
So welcome to the town, where drag queens make the cash, selling kids acid tabs
Oh, we tried to find their stash, but acid's no good
So I got over that, I'm much too old for taking crap

e--------------------------------|
B--------------------------------|
G--------------------------------|
D--7----2----3----5----7----x----|
A--7----2----3----5----7----x----|
E--5---------1----3----5----x----|
Who's got the attitude for ice now?

e----------------------|
B----------------------|
G------------5----5----|
D--7----3----5----5----|
A--7----3----3----3----|
E--5----1--------------|
Oh he was never meant to be a boy
He would climb rivers and swim mountains the wrong way

e------------------------|
B------------------------|
G--10----12----5----5----|
D--10----12----5----5----|
A--8-----10----3----3----|
E------------------------|
But who caught the babe and made him cry?

e----------------------|
B----------------------|
G-------5--------------|
D--3----5----5----5----|
A--3----3----5----5----|
E--1---------3----3----|
Oh I wanted you, but your eyes don't shine like they used to
God, I want it all, but you guys don't like all the old songs
Old songs, new songs, everybody write, write on
Little honey, we can write all night, write on
As long as you've got stars in your eyes, you keep me coming back to you

e----------------------|
B----------------------|
G-------5--------------|
D--3----5----5----5----|
A--3----3----5----5----|
E--1---------3----3----|
Keep me coming, keep, keep me coming
Keep me coming, keep, keep me coming
Keep me coming, keep, keep me coming

e-------------------------------------------------------------------------|
B-------------------------------------------------------------------------|
G-------------------------------------------------------------------------|
D-------------------------------------------------------------------------|
A-----------3-3-3-333-2-------------5----5----------3-3-3-333-2-----------|
E--1-1-1111-------------3-3-3333-3-3--333--1-1-1111-------------3----3----|
Oh I wanted you, but your eyes don't shine like they used to
God, I want it all, but you guys don't like all the old songs

e----------------------|
B----------------------|
G-------5--------------|
D--3----5----5----5----|
A--3----3----5----5----|
E--1---------3----3----|
Keep me coming, keep, keep me coming
                             (So write on)
Keep me coming, keep, keep me coming
                                (Write on)
Keep me coming, keep, keep me coming
(As long as you've got stars in your eyes)
         Keep me coming, keep, keep me coming
(You keep me coming back to you)

e----------------------|
B----------------------|
G-------5--------------|
D--3----5----5----5----|
A--3----3----5----5----|
E--1---------3----3----|
Keep me coming, keep, keep me coming
Keep me coming, keep, keep me coming

e-------------------------|
B-------------------------|
G-------5-----------------|
D--3----5----5----5--7----|
A--3----3----5----5--7----|
E--1---------3----3--5----|
Keep me coming, keep, keep me coming

e----------------------|
B----------------------|
G------------5----5----|
D--7----3----5----5----|
A--7----3----3----3----|
E--5----1--------------|
Oh she was never going to be a star
Oh she was never going to be a star
She was never going to be a star

e-----------------------------------------------------------------|
B-----------------------------------------------------------------|
G--10----12--------------------5---------5--------------5----5----|
D--10----12----7----7--5--3----5----3----5----3----5----5----5----|
A--8-----10----7----7--5--3----3----3----3----3----5----3----3----|
E--------------5----5--3--1---------1---------1----3--------------|
But who has got the attitude for love, anyway?
Tap to rate this tab
 
# A B C D E F G H I J K L M N O P Q R S T U V W X Y Z