Guitaretab - guitar tabs
Song name
# A B C D E F G H I J K L M N O P Q R S T U V W X Y Z

The Jimmy Swift Band - Road Rage tab

Road Rage by The Jimmy Swift Band 

from Nova Scotia, Canada


(Intro riff) 
|-------------------------------|---------------------------------|
|-------------------------------|---------------------------------|
|--------6-6---7-----8-8--------|-9-------------------------------|
|2-------7-7---7-----9-9--------|-9-------------------------------|
|2-------4-4---5-----6-6--------|-7-------------------------------|
|0------------------------------|----0----------------------------|

|-------------------------------|---------------------------------|
|-------------------------------|---------------------------------|
|--------6-6---7-----8-8--------|-9------2b4r2h0------------------|
|2-------7-7---7-----9-9--------|-9----------------------------2~-|
|2-------4-4---5-----6-6--------|-7-------------------------------|
|0------------------------------|----0----------------------------|

(Intro riff 2x)
|-------------------------------|---------------------------------|
|-------------------------------|---------------------------------|
|--------6-6---7-----8-8--------|-9-------------------------------|
|2-------7-7---7-----9-9--------|-9-------------------------------|
|2-------4-4---5-----6-6--------|-7-------------------------------|
|0------------------------------|----0----------------------------|

(Intro Riff variation 2x)
|-------------------------------|---------------------------------|
|-------------------------------|---------------------------------|
|---------6---6-6-7-----8-8-8---|9--9--9--9--9--9--9--9-----------|
|2--------7---7-7-7-----9-9-9---|9--9--9--9--9--9--9--9-----------|
|2--------4---4-4-5-----6-6-6---|7--7--7--7--7--7--7--7-----------|
|0------------------------------|0--0--0--0--0--0--0--0-----------|

(Rest of the band enters, play this bit over the rhythm guitar)
|--------------------------------|--------------------------------|
|--------------------------------|--------------------------------|
|--------------------------------|--------------------------------|
|--------------------------------|--------------------------------|
|--------5h7p5h7p5h7p5h7p5-------|--------------------------------|
|---------------------------5p3 -|0-------------------------------|
 
                                                   
|--------------------------------|--------------------------------|
|--------------------------------|--------------------------------|
|--------------------------------|--------------------------------|
|--------------------------------|----------------------5----5----|
|--------------------------------|----------------5-5h7----7------|
|--------------------------------|--------------------------------|

(Verse)
                                                   Get in your own 
|--------------------------------|--------------------------------|
|--------------------------------|--------------------------------|
|--------------------------------|--------------------------------|
|---5s0--------------------------|--------------------------------|
|7-------------------------------|------------------7--5-------7--|
|--------------------------------|--------------------------------|
 
[ Tab from: http://www.guitaretab.com/t/the-jimmy-swift-band/154486.html ]
lane                                           Before I run you off 
|--------------------------------|--------------------------------|
|--------------------------------|--------------------------------|
|--------------------------------|--------------------------------|
|5-------------------------------|------------------------5--5---5|
|--------------------------------|-------------7------7-----------|
|--------------------------------|--------------------------------|


the road                                        I turn up the 
|--------------------------------|--------------------------------|
|--------------------------------|--------------------------------|
|--------------------------------|--------------------------------|
|--------------------------------|--------------------------------|
|7--7p5~-------------------------|------------------7---5------7--|
|--------------------------------|--------------------------------|


radio                                         just to drown out all my 
|--------------------------------|--------------------------------|
|--------------------------------|--------------------------------|
|--------------------------------|--------------------------------|
|5~---2--2--2--2--2--2--2--2-0h2-|2--2--2--2--2--2--2--2----------|
|-----2--2--2--2--2--2--2--2-----|2--2--2--2--2--2--2--2----------|
|-----0--0--0--0--0--0--0--0-----|0--0--0--0--0--0--0--0----------|
      PM------------------PM         PM----------------PM


expletives...             (Yeah!)
|--------------------------------|
|--------------------------------|
|--------------------------------|
|5-5-5-5-5-5-5-5-7-7-7-7-7-7-7-7-|
|5-5-5-5-5-5-5-5-7-7-7-7-7-7-7-7-|
|3-3-3-3-3-3-3-3-5-5-5-5-5-5-5-5-|


(Intro Riff)
Yeah I'm feeling the roadrage
I'm feeling it in my blood
We're not on the same page
                            G  A
But I'm giving you all my love


(Chorus)
B
One day I'm gonna run this town
                                          G
And when I do I'm gonna run it into the ground
           E
Into the ground (yeah)
B
One day I'm gonna run this town
                                          G
And when I do I'm gonna run it into the ground
           E 
Into the ground
                        F    A
But are you gonna stick around?
                    F        E
Yeah are you gonna stick around?

(Solo over Intro Riff Variation 4x)

(Verse)
E
I'm feeling the roadrage
I'm feeling it in my blood
We're not on the same page
                            G  A
But I'm giving you all my love

B
One day I'm gonna run this town
                                          G
And when I do I'm gonna run it into the ground
           E
Into the ground (yeah)
B
One day I'm gonna run this town
                                          G
And when I do I'm gonna run it into the ground
            E
Into the ground (yes I will)
B
One day I'm gonna run this town
                                                       G
And when I do I'm gonna watch it burn right into the ground
           E
Into the ground
                          F    A
But are you gonna stick around?


------

kevindruhan@hotmail.com
Related for Road Rage tab