Guitaretab - guitar tabs
Song name
# A B C D E F G H I J K L M N O P Q R S T U V W X Y Z

The Jimmy Swift Band - Ahh Yeah tab

Ahh Yeah by Jimmy Swift Band Main Theme Tab.
Offical Site Of The Jimmy Swift Band:  www.thejimmyswiftband.com/

Transcribed by Alex MacDonald
[ Tab from: http://www.guitaretab.com/t/the-jimmy-swift-band/66980.html ]
e----------------------------------------)----------------|
B----------------------------------------)----------------|
G-------2--------------------------------)----play -------|
Dó4p2h4-----2-2-4------------2-----2-4---)-----twice------|
A-----------------0----2--4-----4--------)----------------|
E----------------------------------------)----------------|

e---------------------------------------------------------|
B---------------------------------------------------------|
G-------2-----------------------------------2-------------|
D-4p2h4-----2-2-4-----------------2---4p2h4----2-4p2------|
A-----------------0----2--4--2--4---------------------0---|
E---------------------------------------------------------|
Related for Ahh Yeah tab