Song name
# A B C D E F G H I J K L M N O P Q R S T U V W X Y Z

The Jimmy Swift Band - Two Hands On The Wheel tab

  keyboard intro
e|----------------|
B|----------------|
G|-7--10--5--5--5-|
D|-5---8--3--5--3-|
A|----------------|
E|----------------|

  main riff
e|---------------------------|
B|---------------------------|
G|------3-3-------5-5-5------|
D|-5-5--3-3--3-3--5-5-5--3-3-|
A|-5-5--1-1--3-3--3-3-3--3-3-|
E|-3-3-------1-1---------1-1-|
Tap to rate this tab
# A B C D E F G H I J K L M N O P Q R S T U V W X Y Z