Song name
# A B C D E F G H I J K L M N O P Q R S T U V W X Y Z

The Jimmy Swift Band - 80s Runway Model tab

the main chord is a Dm and its played on upstrokes
              
e|-5-5-5-5-5-5-5-5-|
B|-6-6-6-6-6-6-6-6-|
G|-7-7-7-7-7-7-7-7-|
D|-7-7-7-7-7-7-7-7-|
A|-5-5-5-5-5-5-5-5-|
E|-----------------|

after you played that it goes to down strokes on an F

e|--8--8--8--8--8--8--8--8-|
B|-10-10-10-10-10-10-10-10-|
G|-10-10-10-10-10-10-10-10-|
D|-10-10-10-10-10-10-10-10-|
A|--8--8--8--8--8--8--8--8-|
E|-------------------------|

it switches back and forth between those to chords for a while
and after that it goes to a part where craig uses a delay pedal plays Dm and A#
            each one two times
e|-5-5-(5-5)-(5-5)-(5-5)-|-6-6-(6-6)-(6-6)-(6-6)-|
B|-6-6-(6-6)-(6-6)-(6-6)-|-6-6-(6-6)-(6-6)-(6-6)-|
G|-7-7-(7-7)-(7-7)-(7-7)-|-7-7-(7-7)-(7-7)-(7-7)-|
D|-7-7-(7-7)-(7-7)-(7-7)-|-8-8-(8-8)-(8-8)-(8-8)-|
A|-5-5-(5-5)-(5-5)-(5-5)-|-8-8-(8-8)-(8-8)-(8-8)-|
E|-----------------------|-6-6-(6-6)-(6-6)-(6-6)-|
the brackets are for the delay.. or if you dont have a delay pedal then.. get one

played during the solo
e|------------------------------------------------------|
B|-6-6-6-6-6--8-8-8-8-8--10-10-10-10-10--11-11-11-11-11-|
G|-7-7-7-7-7--9-9-9-9-9--10-10-10-10-10--12-12-12-12-12-|
D|------------------------------------------------------|
A|------------------------------------------------------|
E|------------------------------------------------------|


hopefully you get a general idea of it.. im not to good at transcribing.. or explaining
any questions of comments email me at KeiganBuckley@Gmail.com
Tap to rate this tab
 
# A B C D E F G H I J K L M N O P Q R S T U V W X Y Z