Song name
# A B C D E F G H I J K L M N O P Q R S T U V W X Y Z

The John - Ova Ne E Disko tab

e|------------------12--13--15----------12--13------12--------------12---------|
B|--12--13------15--------------15--15----------13------12--12--13------15--15-|
G|----------12-----------------------------------------------------------------|
D|-----------------------------------------------------------------------------|
A|-----------------------------------------------------------------------------|
E|-----------------------------------------------------------------------------|

e|------------------12--13--15----------12--13------12--------------12---------|
B|--10------12--15--------------15--15----------13------12--12--13------15--15-|
G|------12---------------------------------------------------------------------|
D|-----------------------------------------------------------------------------|
A|-----------------------------------------------------------------------------|
E|-----------------------------------------------------------------------------|

Potoa e Gm so delay
Tap to rate this tab
# A B C D E F G H I J K L M N O P Q R S T U V W X Y Z