The Johnstones - Cant Be Trusted tab

Since I saw that no one tabbed this (seriously..WHY NOT!?) I thought why not tab it out 
:) If you want to see how it is played here is a cover: http://www.youtube.com/watch?v=vS1zNOWBNVU

Enjoy!

Verse:

I fucked two girls last night in the back of my car....(x2)
|-----------------------|
|-----------------------|
|-3-3-5-5-8-8-1010------|
|-3-3-5-5-8-8-1010------|
|-1-1-3-3-6-6-8-8-------|
|-----------------------|

Pre Chorus:

And I'm back, on the track...
|-----------------------|
|-----------------------|
|-3-3-5-5-8-8-1010------|
|-3-3-5-5-8-8-1010------|
|-1-1-3-3-6-6-8-8-------|
|-----------------------|

Chorus:

And I can't be trusted...(x4)
|-------------------|
|-------------------|
|-3-3-----5-5-8-8---|
|-3-3-3-3-5-5-8-8---|
|-1-1-3-3-3-3-6-6---|
|-----1-1-----------|

Verse 2:

Blah blah blah...(x4)
|-----------------------|
|-----------------------|
|-3-3-5-5-8-8-1010------|
|-3-3-5-5-8-8-1010------|
|-1-1-3-3-6-6-8-8-------|
|-----------------------|

Pre Chorus:

Cause we're back, on the track...
|-----------------------|
|-----------------------|
|-3-3-5-5-8-8-1010------|
|-3-3-5-5-8-8-1010------|
|-1-1-3-3-6-6-8-8-------|
|-----------------------|

Chorus:

And I can't be trusted...(x4)
|-------------------|
|-------------------|
|-3-3-----5-5-8-8---|
|-3-3-3-3-5-5-8-8---|
|-1-1-3-3-3-3-6-6---|
|-----1-1-----------|

Pre Verse:

And all this time I been livin' a lie you don't know the real me....(x4)
|-----------------------|
|-----------------------|
|-----------------------|
|-----15------10-----8--|
|---15--15--10--10--8-8-|
|-13-------8-------6----|

Verse 2:

I've been known to do, do the do...(x1)
|-----------------------|
|-----------------------|
|-3-3-5-5-8-8-1010------|
|-3-3-5-5-8-8-1010------|
|-1-1-3-3-6-6-8-8-------|
|-----------------------|

Cause he knows his daughter's not alone...
|---------------------------|
|---------------------------|
|---------------------------|
|-88888888888888881010101010|
|-88888888888888881010101010|
|-6666666666666666-88888888-|

*Break in the Chorus for 4 bars*

Chorus:

I can't be trusted, trusted...(x4)
|-------------------|
|-------------------|
|-3-3-----5-5-8-8---|
|-3-3-3-3-5-5-8-8---|
|-1-1-3-3-3-3-6-6---|
|-----1-1-----------|
Tap to rate this tab
 
# A B C D E F G H I J K L M N O P Q R S T U V W X Y Z