The Johnstones - Sunny Days tab

The other tabs weren't quite right and from their website and watching a couple live 
vids I found the right chords to play for Sunny Days... Enjoy!



- verse -

           C              A              D              G

e|--8--8--x-x--8-----5-5-x-x--5-----5-5-x-x--5-----3-3-x-x--3---||-|
b|--8--8--x-x--8-----5-5-x-x--5-----7-7-x-x--7-----3-3-x-x--3---||.|
g|--9--9--x-x--9-----6-6-x-x--6-----7-7-x-x--7-----4-4-x-x--4---||-|
d|--10-10-x-x--10----7-7-x-x--7-----7-7-x-x--7-----5-5-x-x--5---||-|
a|--10-10-x-x--10----7-7-x-x--7-----5-5-x-x--5-----5-5-x-x--5---||.|
E|--8--8--x-x--8-----5-5-x-x--5-----x-x-x-x--x-----3-3-x-x--3---||-|



- Chorus -


       Dm              C

e|--5-5-x-x-5-5------3-3-x-x-3-3-------|-|
b|--6-6-x-x-6-6------5-5-x-x-5-5-------|-|
g|--7-7-x-x-7-7------5-5-x-x-5-5-------|-|
d|--7-7-x-x-7-7------5-5-x-x-5-5-------|-|
a|--5-5-x-x-5-5--x4--3-3-x-x-3-3--x4---|-|
E|--x-x-x-x-x-x------x-x-x-x-x-x-------|-|     x3



       Dm                 Ab           G

e|--5-5-x-x-5-5----------------------------------|-|
b|--6-6-x-x-6-6----------------------------------|-|
g|--7-7-x-x-7-7-------13-13-13-13--12-12-12-12---|-|
d|--7-7-x-x-7-7-------13-13-13-13--12-12-12-12---|-|
a|--5-5-x-x-5-5--x4---11-11-11-11--10-10-10-10---|-|
E|--x-x-x-x-x-x----------------------------------|-|


That's all you need to know!

Such a chill song from an awesome band... sorry I don't know the solo (I just mess 
around with an A minor pentatonic scale and it sounds fine)

 - Bees
Tap to rate this tab
 
# A B C D E F G H I J K L M N O P Q R S T U V W X Y Z