Song name
# A B C D E F G H I J K L M N O P Q R S T U V W X Y Z

The Jokerr - Illusions For The King tab

e|-11---------6--------------------|--11---------6----------------------------|
B|----11--------7------7h9p7-9-7---|-----11--------7------7h9p7h9-11-9-7-9-7--|
G|8---------7--------6-------8---7-|8----------7--------6---------11---------7|
D|---------------------------------|------------------------------------------|
A|---------------------------------|------------------------------------------|
E|---------------------------------|------------------------------------------|

e|-11---------6--------4-----------|-11---------6-----------|
B|----11--------7--------7-----7---|----11--------7---------|
G|8---------7--------6-------5---8-|8---------7--------6~---|
D|---------------------------------|------------------------|
A|---------------------------------|------------------------|
E|---------------------------------|------------------------|


Facebook: https://www.facebook.com/jokerrfb?fref=ts
Youtube: http://www.youtube.com/user/TheJokerrHQ
Tap to rate this tab
# A B C D E F G H I J K L M N O P Q R S T U V W X Y Z