Song name
# A B C D E F G H I J K L M N O P Q R S T U V W X Y Z

The Jonbenet - Zeppelin tab

----------------------------------------------------------------------------
			     Zeppelin - The Jonbenet
----------------------------------------------------------------------------
Tabbed by:ilost8dollars
Email:

hey guys this is all i could make up for this song sorry. feel free to comment and rate. 
any questions message me on myspace.com/ilost8dollars

Tuning:CGCFAD

D|--------------------------------------------------|
A|--------------------------------------------------|
F|--------------------------------------------------|
C|--------------------------------------------------|
G|------------------5~------------------------------|
C|--0~--3~--5~--2~------0~--3~--5~--2~--4~--2~--0~--|X3

D|----------------------------------------------|
A|----------------------------------------------|
F|----------------------------------------------|
C|----------------------------------------------|
G|------------------5~--------------------------|
C|--0~--3~--5~--2~------0~--3~--5~--2~--4~--2~--|

D|----------------------------------|
A|----------------------------------|
F|----------------------------------|
C|----------------------------------|
G|-----twelve----ten-----tweleve----|
C|--121212121212-1010-121212121212--|X14


| /  slide up
| \  slide down
| h  hammer-on
| p  pull-off
| ~  vibrato
| +  harmonic
| x  Mute note
============================================================================
Tap to rate this tab
 
# A B C D E F G H I J K L M N O P Q R S T U V W X Y Z