Guitaretab - guitar tabs
Song name
# A B C D E F G H I J K L M N O P Q R S T U V W X Y Z

The Joy Formidable - Whirring tab

OK, this is a framework from which I hope someone expands.
All of it is simply pitch.
There are no current good tabs on this song and this is also my first tab.
Any questions or comments: jmcgoun@gmail.com

This tab is based from the music video found here:
http://www.youtube.com/watch?v=a2BUEzdjfpY
If you have half a brain you can figure it out. 

DROP D KIDDIES!

INTRO
Repeat this for a while (figure out the strumming yourself):
Skip the second 11 around :40
e|------------------------|------------------------|------------------------|
B|------------------------|------------------------|------------------------|
G|------------------------|------------------------|------------------------|
D|14--7--11-9-11----------|------------------------|------------------------|
A|14--7--11-9-11----------|------------------------|------------------------|
D|14--7--11-9-11----------|------------------------|------------------------|
      

CHORUS (1:05)
e|-----------------------|------------------------|------------------------|
B|-----------------------|------------------------|------------------------|
G|-----------------------|------------------------|------------------------|
D|2--4--11-7--11---------|------------------------|------------------------|
A|2--4--11-7--11---------|------------------------|------------------------|
D|2--4--11-7--11---------|------------------------|------------------------|

[ Tab from: http://www.guitaretab.com/t/the-joy-formidable/281258.html ]
POST-CHORUS X2 (1:21)
e|-----------------------|------------------------|------------------------|
B|-----------------------|------------------------|------------------------|
G|-----------------------|------------------------|------------------------|
D|2--4--2--4--2----------|-11--7-----2------------|------------------------|
A|2--4--2--4--2----------|-11--7-----2------------|------------------------|
D|2--4--2--4--2----------|-11--7-----2------------|------------------------|
            (SHORT)                 (HOLD)

REPEAT ABOVE AS NEEDED

SOLO (difficult to determine):
e|-----------------------|------------------------|------------------------|
B|-----------------------|------------------------|------------------------|
G|-----------------------|------------------------|------------------------|
D|9--7--11-7--4-2--------|------------------------|------------------------|
A|9--7--11-7--4-2--------|------------------------|------------------------|
D|9--7--11-7--4-2--------|------------------------|------------------------|


Double Bass Breakdown: (3:20)
e|-----------------------|------------------------|------------------------|
B|-----------------------|------------------------|------------------------|
G|-----------------------|------------------------|------------------------|
D|2--7--2--11-7----------|------------------------|------------------------|
A|2--7--2--11-7----------|------------------------|------------------------|
D|2--7--2--11-7----------|------------------------|------------------------|


Ending: (3:58)
Alternate between
e|-----------------------|------------------------|------------------------|
B|-----------------------|------------------------|------------------------|
G|-----------------------|------------------------|------------------------|
D|2--0-------------------|------------------------|------------------------|
A|2--0-------------------|------------------------|------------------------|
D|2--0-------------------|------------------------|------------------------|
Related for Whirring tab
Whirring chords by The Joy Formidable