Song name
# A B C D E F G H I J K L M N O P Q R S T U V W X Y Z

The Joy Formidable - Whirring tab

Just so you're all aware, this is the 3 minute version NOT the 5 minute one. This is
also my first tab...so I tried my hardest :)

Intro/Verse
e||-----------------------------------------------||
B||-----------------------------------------------||
G||-----------------------------------------------||
D||-----------------------------------------------||  x 5
A||-----------------------------------------------||
E||--12-12-12-12-5-5--5--5-9-9-2-2----------------||

WAIT THE 6th TIME IS A BIT DIFFERENT (basically don't play the last two notes you played before)

e||-----------------------------------------------||
B||-----------------------------------------------||
G||-----------------------------------------------||
D||-----------------------------------------------||
A||-----------------------------------------------||
E||--12-12-12-12-5-5--5--5-9-9--------------------||

Then back to

e||-----------------------------------------------||
B||-----------------------------------------------||
G||-----------------------------------------------||
D||-----------------------------------------------||  x 3
A||-----------------------------------------------||
E||--12-12-12-12-5-5--5--5-9-9-2-2----------------||

e||-----------------------------------------------||
B||-----------------------------------------------||
G||-----------------------------------------------||
D||-----------------------------------------------||
A||-----------------------------------------------||
E||--12-12-12-12-5-5--5--5-9-9--------------------||

e||-----------------------------------------------------------||
B||-----------------------------------------------------------||
G||-----------------------------------------------------------||
D||-----------------------------------------------------------||
A||-----------------------------------------------------------||
E||--12-12-12-12-5-5--5--5-9-9-2-2-12-12-12-12-12-12-12-12-12-||

e||-----------------------------------------------||
B||-----------------------------------------------||
G||-----------------------------------------------||
D||-----------------------------------------------||
A||-----------------------------------------------||
E||--12-12-12-12-12-12-12-------------------------||

Chorus:

e||--------------------------------------------------||
B||--------------------------------------------------||
G||--------------------66666666-22222222-66666666----||
D||--22222222-44444444-66666666-22222222-66666666----|| x2
A||--22222222-44444444-44444444-00000000-44444444----||
E||--00000000-22222222-------------------------------||

e||--------------------------------------||
B||--------------------------------------||
G||------------------66666-22222---------||
D||--222-444-222-444-66666-22222--2------|| x2 (play last chord second time and it ring)
A||--222-444-222-444-44444-00000--2------||
E||--000-222-000-222--------------0------||

2nd Verse: (don't start playing until "all these things about me..."
e||-----------------------------------------------------------||
B||-----------------------------------------------------------||
G||-----------------------------------------------------------||
D||-----------------------------------------------------------||
A||-----------------------------------------------------------||
E||-----------------------------------------------------------||

e||-----------------------------------------------------------||
B||-----------------------------------------------------------||
G||-----------------------------------------------------------||
D||-----------------------------------------------------------||
A||-----------------------------------------------------------||
E||--12-12-12-12-5-5--5--5-9-9-2-2-12-12-12-12-12-12-12-12-12-||

e||-----------------------------------------------||
B||-----------------------------------------------||
G||-----------------------------------------------||
D||-----------------------------------------------||
A||-----------------------------------------------||
E||--12-12-12-12-12-12-12-------------------------||

bridge:
e||----------------------------------------------------------||
B||----------------------------------------------------------||
G||--------------------66666666-22222222-66666666------------||
D||--22222222-44444444-66666666-22222222-66666666-44444444---||
A||--22222222-44444444-44444444-00000000-44444444-44444444---||
E||--00000000-22222222----------------------------22222222---||

e||--------------------------------||
B||--------------------------------||
G||--66666666-2222222222222222-----||
D||--66666666-2222222222222222-----||
A||--44444444-0000000000000000-----||
E||--------------------------------||

e||--------------------------------------------------||
B||--------------------------------------------------||
G||--------------------66666666-22222222-66666666----||
D||--22222222-44444444-66666666-22222222-66666666----|| x2
A||--22222222-44444444-44444444-00000000-44444444----||
E||--00000000-22222222-------------------------------||

e||--------------------------------------||
B||--------------------------------------||
G||------------------66666-22222---------||
D||--222-444-222-444-66666-22222--2------|| x2 (play last chord second time and it ring)
A||--222-444-222-444-44444-00000--2------||
E||--000-222-000-222--------------0------||

and thats it :)

(Not to be conceded, but this is the link to how I play it if anyone wants to hear... 
http://www.youtube.com/watch?v=4c7UrAm6maw&feature=channel_video_title)
Tap to rate this tab
# A B C D E F G H I J K L M N O P Q R S T U V W X Y Z