Song name
# A B C D E F G H I J K L M N O P Q R S T U V W X Y Z

The Joy Formidable - Cholla tab

CHOLLA - The Joy Formidable



Tabbed by: AidanSC91
E-mail: applesc91@gmail.com

Tuning: EADGBe



Alrighty guys,
there are two ways you can go about playing this crazy riff.




This is what I came up with while playing along with the CD.

e|-----------------------------------------|
B|-----------------------------------------|
G|-----------------------------------------|
D|-----/6-4-----------------/6-4-----------|
A|-2--------7-6b--------2--------7-6b------|
E|-0--------------7-----0--------------5---|

                  
And this is what I picked up while watching them play the song acoustic,
same notes, different approach.

e|--------------------------------------------------|
B|--------------------------------------------------|
G|--------------------------------------------------|
D|--------------------------------------------------|
A|-----/11-9--------------------/11-9---------------|
E|-0---------12-11b--7------0---------12-11b--5-----|



Have fun ya'll, hope this snowballs into a full tab!
Tap to rate this tab
 
# A B C D E F G H I J K L M N O P Q R S T U V W X Y Z