Song name
# A B C D E F G H I J K L M N O P Q R S T U V W X Y Z

The Juke Joint Pimps - Mean And Evil tab

-----------------------------------------------------------------------------
	            Mean and Evil - The Juke Joint Pimps
-----------------------------------------------------------------------------
http://www.juke-joint-pimps.com/
Tabbed by: Woe{NBS}
Email: woenbs@gmail.com

Tuning: open D

THE "D" PORTION IS THE TAB BELOW, G IS 5th FRET, A IS 7th.

D |-------------------------------------------------------------------------|
A |-------------3/5-------------------------------5-5-----------------------|
F#|-------------3/5------------------------------------6-4-6----------------|
D |-------------3/5---------------------------------------------------------|
A |--5--0h3h5---------5---------------5--0h3h5------------------------------|
D |-------------------------3-5-0-------------------------------------------|

G                                                       D
Youre so mean and evil baby, smoke my bud all the time
G                                                       D
Youre so mean and evil baby, smoke my bud all the time
A                        G                              D
You know I love you girl but dont think that i am blind

In the morning when i go out, you always stay in bed
In the morning when i go out, you always stay in bed
When i come home in the evening, your eyes are cherry-red

Next time i catch you smoking, your ass is on the street
Next time i catch you smoking, your ass is on the street
You can smoke it as you please, but it wont be my weed

THERE IS A BIT OF LEAD IN THERE, BUT PLAYED WITH A SLIDE, SO IT SHOULDNT BE HARD TO PICK UP.

COMMENTS? SUGGESTIONS? FEEL FREE TO EMAIL ME!
Tap to rate this tab
 
# A B C D E F G H I J K L M N O P Q R S T U V W X Y Z