Guitaretab - guitar tabs
Song name
# A B C D E F G H I J K L M N O P Q R S T U V W X Y Z

The Julekalender - The Blues tab

Den her går ud til alle jer nisser som har en hårdt liv


Jeg vil lige bemærke at der nok er en hel masse fejl, men jeg ligger den simpelthen ud 
at jeg gerne selv vil have den rigtige versiont, så rettelser er MEGET velkomne, og jeg 
at der er mange. Jeg tror den er stemt en kvart tone ned. Den går cirka sådan her:


e|----7---6---5--------2--------------------|
B|---6---5---4---3h4p3-2--------------------|
G|--7---6---5-------------------------------|
D|-------------------------3-4-5~-----------|
A|------------------------------------------|
E|------------------------------------------|


Det er ikke et rigtigt pull-off man skal slippe fingeren fra strengen så den næsten ikke 
mere

e|---------------------------------------------------------|
B|---------------------------------------------------------|
G|---------------------------------------------------------|
D|----------------------------5---5--7p5-5---5---5--7p5-5--|
A|--5---5--7p5-5--5---5--7-5--3---3--3---3---3---3--3---3--|
E|--3---3--3---3--3---3--3-3-------------------------------|
[ Tab from: http://www.guitaretab.com/t/the-julekalender/175229.html ]
e|-------------------------------------------------------|
B|-------------------------------------------------------|
G|-------------------------------------------------------|
D|-----------------------------3-------------------------|
A|--5---5--7p5-5--5---5--7-5---7---5--7p5-5--5---5--7-5--|
E|--3---3--3---3--3---3--3-3---3---3--3---3--3---3--3-3--|

e|-------------------------------------------------------|
B|-------------------------------------------------------|
G|-----------------------------3-------------------------|
D|--5---5--7p5-5--5---5--7-5---7---5--7p5-5--5---5--7-5--|
A|--3---3--3---3--3---3--3-3---3---3--3---3--3---3--3-3--|
E|-------------------------------------------------------|


e|-------------------------------------------------------|
B|-------------------------------------------------------|
G|-------------------------------------------------------|
D|-----------------------------3-------------------------|
A|--5---5--7p5-5--5---5--7-5---7---5--7p5-5--5---5--7-5--|
E|--3---3--3---3--3---3--3-3---3---3--3---3--3---3--3-3--|

e|---------------------------------------------7---6---5--------2-|
B|------9--------9---------7----7~------------6---5---4---3h4p3-2-|
G|-------------------------------------------7---6---5------------|
D|--9---9----9---9-----7---7----7~--------------------------------|
A|--8---8--8-8---8-----6---6--6-6~--------------------------------|
E|--9---9-9--9---9-9-8-7---7-7--7~----0-1-2-----------------------|

Resten af sangen og teksten kommer senere


http://www.youtube.com/watch?v=wNXmr15xgyI
×
The Blues