Song name
# A B C D E F G H I J K L M N O P Q R S T U V W X Y Z

The Jungle Giants - Mr Polite tab

Mr. Polite-The Jungle Giants
Hope this helps i couldn't find any tabs for this so i hope im the first thanx :D

Standard tuning
Capo 2nd
All tabs are relative to the capo

Intro:
Sam's guitar:
e|------10-x-10------------------------------------------------------|
B|---8---8-x--8------7-------8--x--8--8------7-----------------------|
G|---0---0-x--0------0-------9--x--9--9------0-----------------------|  X8
D|---9-----x------9---------10--x-10-10---10-------------------------|
A|--10-----------10----10-10--------------10-------------------------|
E|-------------------------------------------------------------------|

Cesira's guitar:
e|-------------------------------------|-----|------------------------|
B|--12------12-------------------------|-----|-------12---------------|
G|---0-------0------11--9----9----11---|--X4-|-------0----------------|
D|-------------------0--0----0-----0---|-----|------------------------|
A|------10-----------------------------|-----|------------------------|
E|----------------10-------8-----10----|-----|------------------------|

Verse1:
                     ----------------------------------------------------
Comin' around,
i'm gonna take you to town.                                              ( Just Bass)
i got your name on my collar,
i'm wearing you about.
                    -----------------------------------------------------

can i take you out to see the sea?
can i hear another story, please?
are you led to the assumption that your company is something that i need?

(If you play with the song or you are very familia with the sound
you'll get the strum pattern, but these are just the arrangements being played)

Sam's Guitar:
e|---7----------------------------------------|
B|---0----7------5----------------------------|
G|---x----0------0----------------------------|  X4
D|---5----x------x----------------------------|
A|--------5------3----------------------------|



Cesira's Guitar:
e|--------------------------------------------------|
B|--------------------------------------------------|
G|----4-4-------------------------------------------|   X4
D|----5-5---4---2--2---4----------------------------|
A|----------5---3--3---5----------------------------|
E|--------------------------------------------------|

Chorus:

Sam's guitar:
e|------10-x-10-----------------------------------------------------|
B|---8---8-x--8------7-------8--x--8--8------7----------------------|
G|---0---0-x--0------0-------9--x--9--9------0----------------------|  X8
D|---9-----x------9---------10--x-10-10---10------------------------|
A|--10-----------10----10-10--------------10------------------------|
E|------------------------------------------------------------------|

Cesira's guitar:
e|-------------------------------------|-----|---------------------------|
B|--12------12-------------------------|-----|-----------12--------------|
G|---0-------0------11--9----9----11---|--X8-|-----------0---------------|
D|-------------------0--0----0-----0---|-----|---------------------------|
A|------10-----------------------------|-----|---------------------------|
E|----------------10-------8-----10----|-----|---------------------------|


Verse 2
please stop from packing your bags,-----------------------------------
or am i moving too fast?
i know we're living in the city,                                   (Part 1)
but here we won't last.------------------------------------------------


Cesira's Guitar: Part 1
e|--------------------|------|------------------------------------------------|
B|--------------------|------|------------------------------------------------|
G|---4-4--------------|--X3--|-----4--7-5--4----------------------------------|
D|---5-5---4---2-2--4-|------|-----5--5-5--5--4--2-2--------------------------|
A|---------5---3-3--5-|------|-----------------5--3-3-------------------------|
E|--------------------|------|------------------------------------------------|


(Part 2)
there's a little place near here,
i like to go and see the sky is clear?
well you can come with me and tell me that i am the only one you don't fear.

 Cesira's Guitar:(part 2)
e|--------------------------|-------|---------------------------------------|
B|--------------------------|-------|---------------------------------------|
G|-------4-4----------------|--X3---|------4-4------------------------------|
D|-------5-5---4---2-2--4---|-------|------5-5--4--2------------------------|
A|-------------5---3-3--5---|-------|-----------5--3------------------------|
E|--------------------------|-------|---------------------------------------|

Sam's Guitar: (Part 2) This is finger picked or hybrid picked
e|-------7----7-------------------|-------|----7---7----------------------------|
B|----------------7-----5--5---7--|-------|-----------7----5--------------------|
G|--------------------------------|--X3---|-------------------------------------|
D|-------5---5--------------------|-------|----5--5-----------------------------|
A|---------------5------3--3---5--|-------|-----------5----3--------------------|
E|--------------------------------|-------|-------------------------------------|


Chorus---------------------Same as before

Bridge

Part1:
why are we waiting?
what are you expecting to see?

Cesira's Guitar:
(These are the notes being played and if you listen you'll get the strum pattern)
e|-----------------------------------------|
B|-----------------------------------------|
G|-----------------------------------------|   X2
D|--------------2--------------------------|
A|-----2--------3--------------------------|
E|-----3-----------------------------------|

Part 2:
why are you waiting?
what are you expecting to see?

Cesira's Guitar:
e|------------------------------------------|
B|------------------------------------------|
G|------------------------------------------|   X2
D|--------------2---------------------------|
A|-----2--------3---------------------------|
E|-----3------------------------------------|

Sam's Guitar:
 A G bar-chord and a C bar-chord is played at the same strum pattern as Cesira
e|----3---------3------------------------------|
B|----3---------5------------------------------|
G|----4---------5------------------------------|   X2
D|----5---------5------------------------------|
A|----5---------3------------------------------|
E|----3----------------------------------------|
          G                  C


After the bridge Cesira plays a little solo

Cesira's Guitar
e|---------------------------*12*----------------|
B|--12---12------------------*12*----------------|
G|-----0------11--- 9--------*12*----------------|
D|-------------0----0--------*12*----------------|
A|--10---10--------------------------------------|
E|------------10----8----------------------------|

Chorus----------------same as before----------

Cesira's second solo during the chorus:
its very distorted and speed picked

Cesira's Guitar:
e|------------------------------------------------|
B|---12------7------5----7-------12---------------|
G|------------------------------------------------|
D|------------------------------------------------|
A|------------------------------------------------|
E|------------------------------------------------|

Thankyou:) Very Much I hope it helps and keep playing.
Tap to rate this tab
# A B C D E F G H I J K L M N O P Q R S T U V W X Y Z