Song name
# A B C D E F G H I J K L M N O P Q R S T U V W X Y Z

The Jungle Giants - Mr Polite tab

-------------------------------------------------------------------------------
                             Mr. Polite - The Jungle Giants
-------------------------------------------------------------------------------
Tabbed by: LucidStrat
E-mail: Blueeyereggie@hotmail.com
First tab guys!!!!!!!
Tuning: Standard

G|------------------------------------------X4-------------------------------|
D|------------------------------------------X4-------------------------------|
A|-------------------5-5-5-----7-5-7--------X4-------------------------------|
E|--5-5-5-9-9-9-12-12-----------------------X4-------------------------------|0dd on 
that last part, but sounds good to me

G|-----------------------------------------X8-----------------------------------|
D|-----7---7---7----7---7---7---7---7------X8-----------------------------------|
A|----------------7---5---5---5---7--------X8-----------------------------------|
E|---5---5---5-----------------------------X8-----------------------------------|

G|------------------------------------------X8-------------------------------|
D|------------------------------------------X8-------------------------------|
A|-------------------5-5-5-----7-5-7--------X8-------------------------------|
E|--5-5-5-9-9-9-12-12-----------------------X8-------------------------------|

G|-----------------------------------------X4--------------------------------|
D|-----------------------------------------X4--------------------------------|
A|12--12--7--5--5--7-----------------------X4--------------------------------|
E|-----------------------------------------X4--------------------------------|You could 
do 7 on D to replace the 12, but this sounds better

G|-----------------------------------------X4-----------------------------------|
D|-----7---7---7----7---7---7---7---7------X4-----------------------------------|
A|----------------7---5---5---5---7--------X4-----------------------------------|
E|---5---5---5-----------------------------X4-----------------------------------|

G|------------------------------------------X8-------------------------------|
D|------------------------------------------X8-------------------------------|
A|-------------------5-5-5-----7-5-7--------X8-------------------------------|
E|--5-5-5-9-9-9-12-12-----------------------X8-------------------------------|Things get 
a bit odd and hard to make out here but here's what I got the rest of the song is the 
riff above.

G|---------------------------------------------------------------------------|
D|----7~~~-------------------------------------------------------------------|
A|--------7-5~~~-7-----------------------------------------------------------|
E|---------------------------------------------------------------------------|
Thanks for viewing and again, this is my first tab, don't be to harsh.
Tap to rate this tab
# A B C D E F G H I J K L M N O P Q R S T U V W X Y Z