Song name
# A B C D E F G H I J K L M N O P Q R S T U V W X Y Z

The Jungle Giants - Shes A Riot tab

Cesira’s main line during the chorus(line starts over again at 12/8)
E|---7---7------10----10-------14----14-------10----10------|
B|-8---8---8/12----12----12/15----15----15\12----12----12/8-|
G|----------------------------------------------------------|
D|----------------------------------------------------------|
A|----------------------------------------------------------|
E|----------------------------------------------------------|

Sam’s Chords during the verses(I'm pretty sure these are right):
E|----------|
B|----------|
G|----9-----|
D|----------|
A|----10----|
E|----8-----|

E|-------------|
B|-------------|
G|----11-------|
D|-------------|
A|----12-------|
E|----10-------|

Cesira’s shred part coming out of the chorus
E|---------------------------------------------------------------------------|
B|-15------------------------------------------------------------------------|
G|----16-14\12-12------------------------------------------------------------|
D|----------------14-14-12-14-12-14/16-16-16-16-16---------------------------|
A|-------------------------------------------------14-14-12-14---------------|
E|---------------------------------------------------------------------------|
Tap to rate this tab
# A B C D E F G H I J K L M N O P Q R S T U V W X Y Z