Song name
# A B C D E F G H I J K L M N O P Q R S T U V W X Y Z

The Jungle Giants - Dont Know What Else To Do tab

For timing, you'll have to listen to the song, it's fairly straight forward though.
Tuning:Standard- Low to high, EADGBE


Guitar 1
e|---------------------------------------------------------------------------|
B|---------------------------------------------------------------------------|
G|----8-6--------------------------------------------------------------------|
D|---6---9-6-----6-------x 2--------6-4-------------------6-4------4---------|
A|--7-------7---7--7---------------4---7-4------4--------4---7-4---4---------|
E|--------------------------------5--------5---5--5-----5-------5--5---------|

Guitar 2 (comes in after part 1 has finished once and drums and bass come in)
e|---7---7--7--7-------7--------4--4--4--4------4-------------------------------|
B|----9---9--9--9---9---9--------5--5--5--5---5--5------------------------------|
G|--9--9---9--9--9-8--8--------6--6--6--6--6-4-4--------------------------------|
D|------------------------------------------------------------------------------|
A|------------------------------------------------------------------------------|
E|------------------------------------------------------------------------------|
That's the verse as well as the intro.

Hope you like it!
Tap to rate this tab
 
# A B C D E F G H I J K L M N O P Q R S T U V W X Y Z