Song name
# A B C D E F G H I J K L M N O P Q R S T U V W X Y Z

The Jungle Giants - Devils In The Detail tab

Song: Devil's In The Detail
Artist: The Jungle Giants
Album: Learn To Exist

(First tab, go easy on me!)

Standard Tuning
Capo 2nd Fret

Intro:
e|-0-0---------------2-2--2-2-0------0-0------------------------------------|
B|-2-2--2-2-0--------3-3--------3-0--2-2--2-2-0--------------0--------------|
G|-0-0--------2------2-2-------------0-0--------2------2-2----2--2-0--------|
D|-2-2----------2-0--0-0-------------2-2----------2-0--0-0-----0------------|
A|-0-0---------------0-0-------------0-0------------------------------------|
E|-----------------------------------------------------2-2--2---2-----------|

"You got what I like, but that don't mean it's right, I don't know myself"
e|-0-0---------------2-2--2-2-0------0-0------------------------------------|
B|-2-2--2-2-0--------3-3--------3-0--2-2--2-2-0--------------0------0-------|
G|-0-0--------2------2-2-------------0-0--------2------2-2----2--2-2--------|
D|-2-2----------2-0--0-0-------------2-2----------2-0--0-0------------------|
A|-0-0---------------0-0-------------0-0------------------------------------|
E|-----------------------------------------------------2-2--2---2-2---------|

"I just need a hit, or something sweet I guess, I don't know what it is"
e|-0-0---------------2-2--2-2-0------0-0------------------------------------|
B|-2-2--2-2-0--------3-3--------3-0--2-2--2-2-0------------------0----------|
G|-0-0--------2------2-2-------------0-0--------2------2-2---2-2--2---------|
D|-2-2----------2-0--0-0-------------2-2----------2-0--0-0---------0--------|
A|-0-0---------------0-0-------------0-0------------------------------------|
E|-----------------------------------------------------2-2--2---2---2-------|

"But you don't know either"
e|--------------------------------------------------------------------------|
B|-------------------------0-0----------------------------------------------|
G|-2-2--2--2--2--2-1--1--1--1-----------------------------------------------|
D|-2--2--2--2--2--2-2--2--2-------------------------------------------------|
A|--------------------------------------------------------------------------|
E|-0---0--0--0--0----0--0---------------------------------------------------|

"If the world around you is changing like the weather, you could freak out baby or sit 
back and watch it change"
e|--------------------------------------------------------------------------|
B|-------------------------------0------------------------------------------|
G|-2-2--2-2-2---2--2--2-1-1--1-----2-2---2-2-2------2------2-1----1---------|
D|-0-0--0-0--0--2---2---2-----2----0-0---0-0--0-----2-2----2-2-2--2--2------|
A|--------------------------------------------------------------------------|
E|-2-2--2-2-----0-0--0--0---0------2-2--2--------0-0----0--------0--0-------|

"It's a lonely life but you could make it better, just remember (ohhhhh) the devil's in 
the detail"
e|--------------------------------------------------------------------------|
B|-----------------------------------------0-------0---0--------------------|
G|-2-2--2-2-2---2--2--2-1-1--1-----2--2------2--2--1-1--1-------------------|
D|-0-0--0-0--0--2---2---2-----2----0---0-0--0-0--0-2--2---------------------|
A|--------------------------------------------------------------------------|
E|-2-2--2-2-----0-0--0--0---0---0--2-2--2------2---0------------------------|

[Instrumental 1:33]
e|-0-0---------------2-2--2-2-0------0-0------------------------------------|
B|-2-2--2-2-0--------3-3--------3-0--2-2--2-2-0-----------------0-----------|
G|-0-0--------2------2-2-------------0-0--------2--2--2-2-0-2-0--2---2------|
D|-2-2----------2-0--0-0-------------2-2----------2-2-0-0----------0-0------|
A|-0-0---------------0-0-------------0-0------------------------------------|
E|----------------------------------------------------2-2-----------2-------|

"Take me far away 'cos now I can't see straight, the sky is out my feet and I can't walk 
I don't know"
e|-0-0---------------2-2--2-2-0------0-0------------------------------------|
B|-2-2--2-2-0--------3-3--------3-0--2-2--2-2-0------------0----0-----------|
G|-0-0--------2------2-2-------------0-0--------2-----2-2-----2--2----------|
D|-2-2----------2-0--0-0-------------2-2----------2---0-0------0------------|
A|-0-0---------------0-0-------------0-0------------0-----------------------|
E|----------------------------------------------------2-2-2--2--------------|

"Why are you so far away from me the ocean spits us down the meadow"
e|-0-0---------------2-2--2-2-0------0-0------------------------------------|
B|-2-2--2-2-0--------3-3--------3-0--2-2--2-2-0------------0----0-----------|
G|-0-0--------2------2-2-------------0-0--------2-----2-2-----2--2----------|
D|-2-2----------2-0--0-0-------------2-2----------2---0-0------0--0---------|
A|-0-0---------------0-0-------------0-0------------0-----------------------|
E|----------------------------------------------------2-2-2--2------2-------|

"But you don't know either"
e|--------------------------------------------------------------------------|
B|-------------------------0-0----------------------------------------------|
G|-2-2--2--2--2--2-1--1--1--1-----------------------------------------------|
D|-2--2--2--2--2--2-2--2--2-------------------------------------------------|
A|--------------------------------------------------------------------------|
E|-0---0--0--0--0----0--0---------------------------------------------------|

"If the world around you is changing like the weather, you could freak out baby or sit 
back and watch it change"
e|--------------------------------------------------------------------------|
B|-------------------------------0------------------------------------------|
G|-2-2--2-2-2---2--2--2-1-1--1-----2-2---2-2-2------2------2-1----1---------|
D|-0-0--0-0--0--2---2---2-----2----0-0---0-0--0-----2-2----2-2-2--2--2------|
A|--------------------------------------------------------------------------|
E|-2-2--2-2-----0-0--0--0---0------2-2--2--------0-0----0--------0--0-------|

"It's a lonely life but you could make it better, just remember (ohhhhh) the devil's in 
the detail"
e|------------------------------------------------------0-------------------|
B|----------0-------------------------------0-----------2-------------------|
G|-2-2--2--2-2---2--2-2-1----1-------2-2--2---2-----1---0-------------------|
D|-0-0--0--0--0--2---2--2-2-----2----0--0-0--0-0----2---2-------------------|
A|------------------------------------------------------0-------------------|
E|-2-2-2--2------0-0---0----0--0--2------2-------0--0-----------------------|





Tabbed by Demertzi
Tap to rate this tab
# A B C D E F G H I J K L M N O P Q R S T U V W X Y Z