Song name
# A B C D E F G H I J K L M N O P Q R S T U V W X Y Z

The Jungle Giants - Come And Be Alone With Me tab

-------------------------------------------------------------------------------
                             COME AND BE ALONE WITH ME - The Jungle Giants
-------------------------------------------------------------------------------
Tabbed by: guitarmanic1996

Pretty simple indie-pop song by a somewhat under-the-radar band.


Tuning: standard
() = palm muted

Main Riff: 
e|---------------------------------------------------------------------------|
B|---------------------------------------------------------------------------|
G|-----------(6)-(9)-(6)-----------------------(6)-(9)-(6)-------------------|
D|-(6)--(9)-------------------(9)--(6)-----(9)---------------(9)-------------|
A|---------------------------------------------------------------------------|
E|---------------------------------------------------------------------------|

Bridge:

e|---7------7-----7-----7-----7----------9-------9-------9-------9-----------|
B|-----9------9-----9-----9------9---------10------10------10------10--------|
G|-9-----9------9-----9-----9-------9/11------11------11------11------11-----|
D|---------------------------------------------------------------------------|
A|---------------------------------------------------------------------------|
E|---------------------------------------------------------------------------|

e|-9----------11-------11-------11--------11-------11----------9------9------|
B|---10----------12-------12-------12--------12-------12---------10-----10---|
G|------11/13-------13-------13-------13--------13-------13\11------11-----11|
D|---------------------------------------------------------------------------|
A|---------------------------------------------------------------------------|
E|---------------------------------------------------------------------------|

e|-9-------9-------9---------------------------------------------------------|
B|---10------10------10------------------------------------------------------|
G|------11------11------11/9-------------------------------------------------|  x2
D|---------------------------------------------------------------------------|
A|---------------------------------------------------------------------------|
E|---------------------------------------------------------------------------|

Chorus: (listen to song for rhythm)

e|---------9-------11--------------------------------------------------------|
B|-9-------10------12--------------------------------------------------------|
G|-9-------11------13--------------------------------------------------------|
D|-9-------11------13--------------------------------------------------------|
A|-7-------9-------11--------------------------------------------------------|
E|-0-------x-------x---------------------------------------------------------|

Solo:

e|---------------------------------------------------------------------------|
B|-9---9---9--9---9---9--9---9---9-9---9---9-10---10---10-10---10---10--10---|
G|---9---9------9---9------9---9-----9---9------9----9-------9----9--------9-|
D|---------------------------------------------------------------------------|
A|---------------------------------------------------------------------------|
E|---------------------------------------------------------------------------|

e|---------------------------------------------------------------------------|
B|-10---10--12--12--10--10---------------------------------------------------|
G|----9----------------------------------------------------------------------| x2
D|---------------------------------------------------------------------------|
A|---------------------------------------------------------------------------|
E|---------------------------------------------------------------------------|


************************************

| /   slide up
| \   slide down
| h   hammer-on
| p   pull-off
| ~   vibrato
| +   harmonic
| x   Mute note
| b   Bend
| pb  Pre-bend
| br  Bend release
| pbr Pre-bend release
| brb Bend release bend

************************************
Tap to rate this tab
# A B C D E F G H I J K L M N O P Q R S T U V W X Y Z