Song name
# A B C D E F G H I J K L M N O P Q R S T U V W X Y Z

The Junior Varsity - Dont Forget To Set Your House On Fire Before You Crawl Into Bed At Night House Fire tab

Good Song by the JV this may be their Best

This is a revision of an old tab I made this one is much easier to read....
Thanks for Looking

Any questions email me at eman615290@yahoo.com

Standard Tuning EADGBE


Intro
E---------------------------------------------|
B---------------------------------------------|
G---------------------------------------------|
D-66666666-8888888-10-------------------------|
A-66666666-8888888-10-(5x)14-(4x)- 12-13------| 
E-44444444-6666666-8------11-------10-11------|


Words Like Butterflies
E--------------------------|
B--------------------------|
G--------------------------|
D-66-88-10-13-13-----------|
A-66-88-10-13-13-----------|
E-44-66-88-11-11-----------|

This Shade of
E---------------------------------------------|
B---------------------------------------------|
G---------------------------------------------|
D-66666666-8888888-10-------------------------|
A-66666666-8888888-10-(5x)14-(4x)- 12-13------| 
E-44444444-6666666-8------11-------10-11------|


Break
E-------------------------------|
B-------------------------------|
G-------------------------------|
D-66-66-88-88-10-10-13-13-13-13-|
A-66-66-88-88-10-10-13-13-13-13-|
E-44-44-66-66-88-88-11-11-11-11-|

words and phrases
E---------------------------------------------|
B---------------------------------------------|
G---------------------------------------------|
D-66666666-8888888-10-------------------------|
A-66666666-8888888-10-(5x)14-(4x)- 12-13------| 
E-44444444-6666666-8------11-------10-11------|

and Now Im Gone
E---------------------------|
B---------------------------|
G---------------------------|
D-6--8--10-13---------------|
A-6--8--10-13---------------|
E-4~-6~-8~-11~--------------|
 Break
E-------------------------------|
B-------------------------------|
G-------------------------------|
D-66-66-88-88-10-10-13-13-13-13-|
A-66-66-88-88-10-10-13-13-13-13-|
E-44-44-66-66-88-88-11-11-11-11-|
Now Im Gone (outro)

E---------------------------------------------|
B---------------------------------------------|
G---------------------------------------------|
D-66666666-8888888-10-------------------------|
A-66666666-8888888-10-(5x)14-(4x)- 12-13------| 
E-44444444-6666666-8------11-------10-11------|
Tap to rate this tab
# A B C D E F G H I J K L M N O P Q R S T U V W X Y Z