Song name
# A B C D E F G H I J K L M N O P Q R S T U V W X Y Z

The Junior Varsity - Get Comfortable tab

It's Tuned a half step down (Eb, Ab,Db,Gb,Bb,Eb)

~ let ring
/ slide

After the intro part


Guitar 1 & 2
E--------------------------------------|
B--------------------------------------|
G--------------------------------------|
D-5---5-5--5~---5-5---5~--5-5--5~------|
A-5---5-5--5~---5-5---5~--5-5--5~------|
E-3---3-3--3----3-3---3~--3-3--3-------|

Verse

Guitar 1
E---------------------------------|
B---------------------------------|
G---------------------------------|
D-9--9-X-X-X-X--5--5-X-X-----8x---|
A-9--9-X-X-X-X--5- 5-X-X----------|
E-7--7-X-X-X-X--3--3-X-X----------|

Guitar 2

E-----10---7---5-----------------10---7---5----------|
B-5h7----7---7-----5-7-5-----5h7----7---7----8-7-5---|
G------------------------7-------------------------7-| 2x
D----------------------------------------------------|
A----------------------------------------------------|
E----------------------------------------------------|

Then Guitar 2 simplifies it

E-------------------------------------------|
B--5-7-5-------------8-7-5------------------|
G--------7-----------------7----------------|
D-------------------------------------------|
A-------------------------------------------|
E-------------------------------------------|

Both Guitars End On This

E--------------------------------|
B--------------------------------|
G-5-5-5--------------------------|
D-5-5-5--------------------------|
A-3-3-3--------------------------|
E--------------------------------|

Pre Chorus (weird rhythm but you can figure it out)

E----------------------------------------------------|
B----------------------------------------------------|
G-------5--4-----------------------------------------|
D-9/-5--5--4-----------------------------------------| 3x then
A-9/-5--3--2-----------------------------------------|
E-7/-3-----------------------------------------------|

E----------------------------------------------------|
B----------------------------------------------------|
G-4--------------------------------------------------|  Play The Em Until
D-4-3x-5----7-----2-2-2-2-2-2-2-2-2------------------|  The Chorus Comes In
A-2----5-3x-7-3x--2-2-2-2-2-2-2-2-2------------------|
E------3----5-----0-0-0-0-0-0-0-0-0------------------|


Chorus

Guitar 1
E-------------------------------------------------------|
B-------------------------------------------------------|
G-------------------------------------------------------|
D---5------10------9------10----------------------------| First Time
A---5-16x--10-16x--9-16x--10-16x------------------------| Palm Mute
E---3------8-------7------8-----------------------------|

E--10--0------------------------------------|
B----------8---0----------------------------|
G-------------------------------------------| He does this the a few times
D-------------------------------------------| after its unpalm muted
A-------------------------------------------| I can't make it out
E-------------------------------------------|


(Verse) same as first

Only end it with this instead

E------------------------------------------------|
B------------------------------------------------|
G------------------------------------------------|
D-4-----5-----7------2---------------------------|
A-4-3x--5-3x--7-3x---2-3x------------------------|
E-2-----3-----5------0---------------------------|


(Chorus) again


Post Chorus

E----------------------------------------------------|
B----------------------------------------------------|
G----------------------------------------------------|
D-5-----9-----10-----9-------------------------------| 2x the rhythm is
A-5-8x--9-8x--10-8x--9-8x----------------------------| Different the 2nd time
E-3-----7-----8------7-------------------------------|

Break: Guitar 2 does the chorus by himself  (the part I can't figure out.)


(Chorus) Slows Down Last time

End on

E------------------------------------|
B------------------------------------|
G------------------------------------|
D-5~---------------------------------|
A-5~---------------------------------|
E-3~---------------------------------|


If anyone has questions you can email me at eman615290@yahoo.com

If anyone wishes to add to this tab feel free

If anyone figures out the chorus lead feel free to add it and send it to me

this is my favorite band right now they are amazing

If any knows how to play any TJV songs please post them =]

its a shame they broke up.

Thanks,
       Murph
Tap to rate this tab
 
# A B C D E F G H I J K L M N O P Q R S T U V W X Y Z