Song name
# A B C D E F G H I J K L M N O P Q R S T U V W X Y Z

The Katinas - Eagles Wings tab

Hay guys.
This is just the intro,but it sounds almost spot on with the original,but check it out.God Bless.

Orion

Capo 2nd Fret

e-------3------------------5-----------5------5---3-----3------------|
B-0------------0---------3-----3------------------3---3----------3---|
G---5------------5-----2-----2-------0------0-------0----------0----0|
D-----5--------------0-----------0-2----2-0-----0--------------------|
A-0----------------0------------------------------3----------------3-|
E--------------------------------------------------------------------|

e-------3------------------5-----------------------3-----3-----------|
B-0------------0---------3-----3-------3-------3-------0----------0--|
G---5------------5-----2-----2---------------2-------0----------0----|
D-----5--------------0-----------0---0-------------2-----------------|
A-0----------------0-------------------------------------------------|
E----------------------------------3-----3-2-----2-------------------|
Tap to rate this tab
 
# A B C D E F G H I J K L M N O P Q R S T U V W X Y Z