Song name
# A B C D E F G H I J K L M N O P Q R S T U V W X Y Z

The Katinas - Thank You tab

Thank You
By: The Katinas
Tabs by: Kuya Joms
From Kadayawan Four Square, Bangkal, Davao City, Philippines
Text me: 0918-662-5434,for any comment or request or suggestions:
God Bless Us All!!!

Note: Since I can't find any tablature of this song, I Hardly made it on my own"
      This is the 2nd tab I Submitted. Dated December 31, 2009.

     " BE A BETTER MUSICIAN SHARE YOUR TALENT TO ALL CHRISTIAN BELIEVERS"


Intro:
-----------------------------------------------------------------------------------|
-----6-6---6--------------------------------------8-8----------6-------------------|
-----7-7---7----7---10-10--10h11p10-8-------------8-8--------8-7-------------------|
------------8-------10-10-------------10--------------------8----------------------|
---8-----8----8---8----8-----------------8h10---10-----8h10------------------------|
-6-----6--------------------------------------8-----8----------6-------------------|


Verse:Bb-F-Cm-F

------------------------------------------------------------------------------------|
-----6-6---6--------------------------------------8-8---------------8h10---10/11----|
-----7-7---7----7---10-10--10h11p10-8-------------8-8--------8----10-----10---------|
------------8-------10-10-------------10--------------------8---10------------------|
---8-----8----8---8----8-----------------8h10---10-----8h10----8--------------------|
-6-----6--------------------------------------8-----8-------------------------------|

ref:Eb-F-Bb-Eb-Cm-F

----6---8---------------------------------------------------8-----------------------|
-----8------10------6-8---8--------11p8-----------------8---8-----------------------|
---8------10--10----7-8----8-----------8--10p8--------10-10-10----------------------|
--8-------------------------8-----8-----8-----8-----10------10----------------------|
-6------8----------8--6-6-------10-------------10--8--------8-----------------------|
------------------6------------8----------------------------8-----------------------|

chorus:Bb-F-Cm-F

Pre-solo: Gm7-F-Cm(2x) then solo:

Here's the solo part:


---------------------------------2\--------------|
---------------------1h3-5--3-5--3\-7-7--8-8/10--|
-2h3p0---------1h2-4-------------2\-7-7--9-9/11--|
---------2-4-------------------------------------|
-------------------------------------------------|
-------------------------------------------------|


----10-12/14-14-14---12-10-10--10h12-------|
-/10--------------------------------10-----|
-------------------------------------------|
-------------------------------------------|
-------------------------------------------|
-------------------------------------------|


-------------------------------------10-10-|
-7-8-8/10-10-8--8/10-7------3-3---/10------|
-7-9-9/11-11-9--9/11-7---2h4---------------|
-------------------------------------------|
-------------------------------------------|
-------------------------------------------|

-9-12-9h10-9-------------------------------|
-------------10--10/12-10--10----10/12-10--|
---------------11--------11----11----------|
-------------------------------------------|
-------------------------------------------|
-------------------------------------------|


9h10p9-------------------------------------|
------10------------------10/12-10---------|
--------11-9/11-9--9/11-7------------------|
-------------------------------------------|
-------------------------------------------|
-------------------------------------------|

Here I am...
                                                 strum....
-----8----8-----------------------------5------5-5----------------------------------|
-8-----8---------10---10-----10------5h6--5-5h6--6----------------------------------|
-9-9---9-9--------------12-----12----5----5-5----5----------------------------------|
---------------12---12-----12----12--------------7----------------------------------|
-------------10----------------------5----5-5----5----------------------------------|
-8-----8-----------------------------------------5----------------------------------|

Chorus:(to end): C-G-Dm-G/-Dm-G-Dm-G-/C-Dm-C-Dm ----12-12-10-10/12-10---|2x
                                                ------------------------|2x
                                                -10/12----10-10/12-10---|2x
                                                ------------------------|2x
                                                ------------------------|2x
                                                ------------------------|2x

I wanna say Thank You...

outro:
                       C-chords
-----------------------0--------------------|
-5-6-6/8-6-5---------1-1--------------------|
-5-7-7/9-7-5----0-0h2--0--------------------|
-----------------------2--------------------|
-----------------------3--------------------|
-----------------------3--------------------|


Thats It Enjoy! (-)---i
Tap to rate this tab
 
# A B C D E F G H I J K L M N O P Q R S T U V W X Y Z