Song name
# A B C D E F G H I J K L M N O P Q R S T U V W X Y Z

The Katinas - Thank You tab

Thank You (The Katinas) Tab
Jayesslee Version
Tabbed by Emmanuel Tse
Capo/Tuning: Capo 4- Tabs are in reference to capo, Standard Tuning
This is just my take on Jayesslee’s version, I recommend listening to the video to get 
the timing of the chords down, for example, the chord transitions seem to be slower in 
the chorus
Also, I didn’t know how to show a slap, so for the sake of this tab, the “x” means slap

Intro
=====
  G                      D                         Am               D
|----3--x--3----------------3---x---2-----2h3-----------3--x--3-------3----|
|----3--x--3---------3------3---x---3---------3----0h1--1--x--1----------3-|
|-------x----------0--------2---x---2---2----------2----2--x--2-----0------|
|-------x------0h2-------0------x--------------------------x---------------|
|-------x-----------------------x--------------------------x---------------|
|-3-----x--3--------------------x--------------------------x---------------|


Verse 1
=====
  G                                       D
|-----3----x-----3----------------------------3----x----2-------2h3-------|
|-----3----x-----3-----------3----------------3----x----3------------3----|
|----------x---------------0------------------2----x----2----2------------|
|----------x-----------0h2----------------0--------x----------------------|
|----------x---------------------------------------x----------------------|
|-3--------x-----3---------------------------------x----------------------|
Just a little while longer I wanna pray, can't get you off my mind so I came to say

  Am                          D
|---------3-----x-----3-----------3------x----2-------2h3-------|
|-0h1-----1-----x-----1-----------3------x----3------------3----|
|-2-------2-----x-----2-----------2------x----2----2------------|
|---------------x-------------0----------x----------------------|
|---------------x------------------------x----------------------|
|---------------x------------------------x----------------------|
Thank you Lord, just for loving me

  G                                       D
|-----3----x-----3----------------------------3----x----2-------2h3-------|
|-----3----x-----3-----------3----------------3----x----3------------3----|
|----------x---------------0------------------2----x----2----2------------|
|----------x-----------0h2----------------0--------x----------------------|
|----------x---------------------------------------x----------------------|
|-3--------x-----3---------------------------------x----------------------|
Many times I do forget, every need that you have met

  Am                          D
|---------3-----x-----3-----------3------x----2-----------------|
|-0h1-----1-----x-----1-----------3------x----3-----------------|
|-2-------2-----x-----2-----------2------x----2-----------------|
|---------------x-------------0----------x----------------------|
|---------------x------------------------x----------------------|
|---------------x------------------------x----------------------|
Oh thank you Lord, I know you’re showing me


Pre-Chorus 1
=====
  G   C                   D
|----------------------------------2----------------------------|
|-3------------3----------------3-------------------------------|
|-----------0----------------2----------------------------------|
|--------0----------------0-------------------------------------|
|-2---3---------------------------------------------------------|
|---------------------------------------------------------------|
You are there when I am down and out

  G           C
|-----3--x----3----------3--------------------------------------|
|-----3--x----3--------------3----------------------------------|
|--------x-----------0------------------------------------------|
|--------x------------------------------------------------------|
|-2------x----3-------------------------------------------------|
|--------x------------------------------------------------------|
You’re holding me

  Am                          D
|---------3-----x-----3-----------3------x----2-----------------|
|-0h1-----1-----x-----1-----------3------x----3-----------------|
|-2-------2-----x-----2-----------2------x----2-----------------|
|---------------x-------------0----------x----------------------|
|---------------x------------------------x----------------------|
|---------------x------------------------x----------------------|
Your love is so amazing, oh it changed me


Chorus
=====
  G                          D
|----3----x----3------------------3---x----2--------2h3---------|
|----3----x----3------------------3---x----3--------------3-----|
|---------x-----------------------2---x----2-----2--------------|
|---------x------------------0--------x-------------------------|
|---------x---------------------------x-------------------------|
|-3-------x----3----------------------x-------------------------|
Here I am, with all I have, I raise my hands to worship you

  Am                          D
|---------3-----x-----3-----------3------x----2-------2h3-------|
|-0h1-----1-----x-----1-----------3------x----3------------3----|
|-2-------2-----x-----2-----------2------x----2----2------------|
|---------------x-------------0----------x----------------------|
|---------------x------------------------x----------------------|
|---------------x------------------------x----------------------|
I wanna say thank you, oh thank you

  G                          D
|----3----x----3------------------3---x----2--------2h3---------|
|----3----x----3------------------3---x----3--------------3-----|
|---------x-----------------------2---x----2-----2--------------|
|---------x------------------0--------x-------------------------|
|---------x---------------------------x-------------------------|
|-3-------x----3----------------------x-------------------------|
For everything for who you are, you cover me and touch my heart

  Am
|---------3-----x-----3----------3-------|
|-0h1-----1-----x-----1-------1-----1----|
|-2-------2-----x-----2------------------|
|---------------x------------------------|
|---------------x------------------------|
|---------------x------------------------|
I wanna say thank you


Verse 2
=====
I could of died in my sin but you saved me
Didn't have any hope at all, you gave me peace divine
Strength to carry on-ooon
Should of been the one to pay, but instead you took my place
Amazing grace, is more than just a song


Pre-Chorus 2
=====
Even though I don't deserve
Your love for me
You looked beyond my fault
And you showed me mercy


Chorus 2
=====
    G                                  D
So here I am, with all I have, I raise my hands to worship you
 Am                     D
I wanna say thank you, oh thank you
     G
For everything, for who you are
 D                                           Am
You cover me, and touch my heart, I wanna say thank you

  G   C                G              D
|-------------------------------------------3----x----3-------|
|-3------------3----------------3-----------3----x----3-------|
|-----------0----------------0--------------2----x----2-------|
|--------0----------------0-------------0--------x----0-------|
|-2---3----------------2-------------------------x------------|
|------------------------------------------------x------------|
I wanna say thank you, for the son

  G   C                G
|-------------------------------------------------------------|
|-3------------3----------------3-----------------------------|
|-----------0----------------0--------------------------------|
|--------0----------------0-----------------------------------|
|-2---3----------------2--------------------------------------|
|-------------------------------------------------------------|
I wanna say thank you

Dsus (strum) (slap)
For the rain


-Key Change-
Chorus
=====
  A                           E
|----------x-------------------------x------------------------|
|-----0----x---0-----------------0---x---0--------------------|
|-----2----x---2-----------------1---x---1--------------------|
|-----2----x---2-----------------2---x---2--------------------|
|-0--------x---0---------------------x------------------------|
|----------x------------------0------x---0--------------------|
Here I am, with all I have, I raise my hands to worship you

  D2                          E
|-----0----x----0--------------------x------------------------|
|-----3----x----3----------------0---x---0--------------------|
|-----2----x----2----------------1---x---1--------------------|
|-0--------x----0----------------2---x---2--------------------|
|----------x-------------------------x------------------------|
|----------x------------------0------x---0--------------------|
I wanna say thank you, oh Thank you

  A                           E
|----------x-------------------------x------------------------|
|-----0----x---0-----------------0---x---0--------------------|
|-----2----x---2-----------------1---x---1--------------------|
|-----2----x---2-----------------2---x---2--------------------|
|-0--------x---0---------------------x------------------------|
|----------x------------------0------x---0--------------------|
For everything, for who you are, You cover me and touch my heart

  D2                          A/F#
|-----0----x----0-----0h2-----------x--------------0----------|
|-----3----x----3----------------2—-x----2-----2--------------|
|-----2----x----2---2------------2—-x----2--------------------|
|-0--------x----0----------------2—-x----2--------------------|
|----------x------------------------x-------------------------|
|----------x------------------2-----x----2--------------------|
I wanna say thank you, thank you

  D2                          A/F#
|-----0----x----0-----0h2-----------x--------------0----------|
|-----3----x----3----------------2—-x----2-----2--------------|
|-----2----x----2---2------------2—-x----2--------------------|
|-0--------x----0----------------2—-x----2--------------------|
|----------x------------------------x-------------------------|
|----------x------------------2-----x----2--------------------|
I wanna say thank you, thank you

  D2                          Esus     E
|-----0----x----0-----0h2-------------------------------------|
|-----3----x----3------------------0------0-------------------|
|-----2----x----2---2--------------2------1-------------------|
|-0--------x----0---------------2------2----------------------|
|----------x--------------------------------------------------|
|----------x------------------0-------------------------------|
I wanna say thank you, oo

  A                           E
|----------x-----------0-------------x------------------------|
|-----0----x---0----2------------0---x---0--------------------|
|-----2----x---2-----------------1---x---1--------1h2p1-------|
|-----2----x---2-----------------2---x---2--------2-----------|
|-0--------x---0---------------------x------------------------|
|----------x------------------0------x---0-----0--------------|
I wanna say thank you, oo

  A/F#                            D
|--------x--------------0--------------------0h2--------------|
|-----2—-x----2-----2-----------------3------------3----------|
|-----2—-x----2----------------------------------------2------|
|-----2—-x----2-------------------0------0--------------------|
|--------x----------------------------------------------------|
|--2-----x----2-----------------------------------------------|
yeah yeah yeeaahh

  E                                     Aadd9/A (strum)
|---------------------------------------0---------------------|
|-------0------0--------0---------------0h2-------------------|
|-------1------1h2---1-----1------------2---------------------|
|----2-----2------------------2---------2---------------------|
|--------------------------------2------0---------------------|
|-0--------0--------------------------------------------------|
Tap to rate this tab
# A B C D E F G H I J K L M N O P Q R S T U V W X Y Z