Guitaretab - guitar tabs
Song name
# A B C D E F G H I J K L M N O P Q R S T U V W X Y Z

The Kbc - Not Anymore tab

The KBC - Not Anymore

Standard Tuning

Intro, guitar comes in by 00:03

Guitar 1
|-----------------------------------------|
|-----------------------------------------|
|-5-5-5-5-5-5-5-5-5-5-5-5-5-5-5-5-5-5-5-5-|
|-5-5-5-5-5-5-5-5-5-5-5-5-5-5-5-5-5-5-5-5-|
|-3-3-3-3-3-3-3-3-3-3-3-3-3-3-3-3-3-3-3-3-|
|-----------------------------------------|

|-----------------------------------------|
|-----------------------------------------|
|-7-7-7-7-7-7-7-7-7-7-7-7-7-7-7-7-7-7-7-7-|
|-7-7-7-7-7-7-7-7-7-7-7-7-7-7-7-7-7-7-7-7-|
|-5-5-5-5-5-5-5-5-5-5-5-5-5-5-5-5-5-5-5-5-|
|-----------------------------------------|

|-----------------------------------------|
|-----------------------------------------|
|-9-9-9-9-9-9-9-9-9-9-9-9-9-9-9-9-9-9-9-9-|
|-9-9-9-9-9-9-9-9-9-9-9-9-9-9-9-9-9-9-9-9-|
|-7-7-7-7-7-7-7-7-7-7-7-7-7-7-7-7-7-7-7-7-|
|-----------------------------------------|

|-----------------------------------------|
|-----------------------------------------|
|-12-12-12-12-12-12-12-12-12-12-12-12-12--|
|-12-12-12-12-12-12-12-12-12-12-12-12-12--|
|-10-10-10-10-10-10-10-10-10-10-10-10-10--|
|-----------------------------------------|

Guitar 2
|-----------------------------------------|
|-----------------------------------------|
|-5-5-5-5-5-5-5-5-5-5-5-5-5-5-5-5-5-5-5-5-|
|-x-x-x-x-x-x-x-x-x-x-x-x-x-x-x-x-x-x-x-x-|
|-3-3-3-3-3-3-3-3-3-3-3-3-3-3-3-3-3-3-3-3-|
|-----------------------------------------|

|-----------------------------------------|
|-----------------------------------------|
|-7-7-7-7-7-7-7-7-7-7-7-7-7-7-7-7-7-7-7-7-|
|-x-x-x-x-x-x-x-x-x-x-x-x-x-x-x-x-x-x-x-x-|
|-5-5-5-5-5-5-5-5-5-5-5-5-5-5-5-5-5-5-5-5-|
|-----------------------------------------|

|-----------------------------------------|
|-----------------------------------------|
|-9-9-9-9-9-9-9-9-9-9-9-9-9-9-9-9-9-9-9-9-|
|-x-x-x-x-x-x-x-x-x-x-x-x-x-x-x-x-x-x-x-x-|
|-7-7-7-7-7-7-7-7-7-7-7-7-7-7-7-7-7-7-7-7-|
|-----------------------------------------|

|-----------------------------------------|
|-----------------------------------------|
|-12-12-12-12-12-12-12-12-12-12-12-12-12--|
|--x--x--x--x--x--x--x--x--x--x--x--x--x--|
|-10-10-10-10-10-10-10-10-10-10-10-10-10--|
|-----------------------------------------|

00:18
Guitar 1
|-------------------------------------------------------------|
|-------------------------------------------------------------|
|-4-4-4-5--9-9-9-7-5-9-9-9-7-5--4-4-4-5--9-9-9-7-5-9-9-9-7-5--|
|-4-4-4-5--9-9-9-7-5-9-9-9-7-5--4-4-4-5--9-9-9-7-5-9-9-9-7-5--|
|-2-2-2-3--7-7-7-5-3-7-7-7-5-3--2-2-2-3--7-7-7-5-3-7-7-7-5-3--|
|-------------------------------------------------------------|

Guitar 2
|-------------------------------------------------------------|
|-------------------------------------------------------------|
|-4-4-4-5--9-9-9-7-5-9-9-9-7-5--4-4-4-5--9-9-9-7-5-9-9-9-7-5--|
|-x-x-x-x--x-x-x-x-x-x-x-x-x-x--x-x-x-x--x-x-x-x-x-x-x-x-x-x--|
|-2-2-2-3--7-7-7-5-3-7-7-7-5-3--2-2-2-3--7-7-7-5-3-7-7-7-5-3--|
|-------------------------------------------------------------|

Verse 00:25

Guitar2  come in at 00:39

Guitar1
|-----------------------------------------|
|-----------------------------------------|
|-----------------------------------------|
|-----------------------------------------|
|-3-3-3-3-3-3-3-3-3-3-3-3-3-3-3-3-3-3-3-3-|
|-----------------------------------------|
|                                         |
|-----------------------------------------|
|-----------------------------------------|
|-----------------------------------------|
|-----------------------------------------|
|-5-5-5-5-5-5-5-5-5-5-5-5-5-5-5-5-5-5-5-5-|
|-----------------------------------------|
|                                         |
|-----------------------------------------|
|-----------------------------------------|
|-----------------------------------------|
|-----------------------------------------|
|-7-7-7-7-7-7-7-7-7-7-7-7-7-7-7-7-7-7-7-7-|
|-----------------------------------------|
|                                         |
|-----------------------------------------|
|-----------------------------------------|
|-----------------------------------------|
|-----------------------------------------|
|-10-10-10-10-10-10-10-10-10-10-10-10-10--|
|-----------------------------------------|

Guitar2 00:39
|-----------------------------------------|
|-----------------------------------------|
|-5-5-5-5-5-5-5-5-5-5-5-5-5-5-5-5-5-5-5-5-|
|-x-x-x-x-x-x-x-x-x-x-x-x-x-x-x-x-x-x-x-x-|
|-3-3-3-3-3-3-3-3-3-3-3-3-3-3-3-3-3-3-3-3-|
|-----------------------------------------|
|                                         |
|-----------------------------------------|
|-----------------------------------------|
|-7-7-7-7-7-7-7-7-7-7-7-7-7-7-7-7-7-7-7-7-|
|-x-x-x-x-x-x-x-x-x-x-x-x-x-x-x-x-x-x-x-x-|
|-5-5-5-5-5-5-5-5-5-5-5-5-5-5-5-5-5-5-5-5-|
|-----------------------------------------|
|                                         |
|-----------------------------------------|
|-----------------------------------------|
|-9-9-9-9-9-9-9-9-9-9-9-9-9-9-9-9-9-9-9-9-|
|-x-x-x-x-x-x-x-x-x-x-x-x-x-x-x-x-x-x-x-x-|
|-7-7-7-7-7-7-7-7-7-7-7-7-7-7-7-7-7-7-7-7-|
|-----------------------------------------|
|                                         |
|-----------------------------------------|
|-----------------------------------------|
|-12-12-12-12-12-12-12-12-12-12-12-12-12--|
|--x--x--x--x--x--x--x--x--x--x--x--x--x--|
|-10-10-10-10-10-10-10-10-10-10-10-10-10--|
|-----------------------------------------|

Bridge
Botg Guitars 00:53
|---------------------------------------------|
|---------------------------------------------|
|-10-10-10--9-9-9--10-10--12-12-12--7-7-7-7-7-|
|-x--x--x---x-x-x--x--x---x--x--x---x-x-x-x-x-|
|-8--8--8---7-7-7--8--8---10-10-10--5-5-5-5-5-|
|---------------------------------------------| x4

Chorus 01:08
Guitar 1
|-------------------------------------------------------------|
|-------------------------------------------------------------|
|-4-4-4-5--9-9-9-7-5-9-9-9-7-5--4-4-4-5--9-9-9-7-5-9-9-9-7-5--|
|-4-4-4-5--9-9-9-7-5-9-9-9-7-5--4-4-4-5--9-9-9-7-5-9-9-9-7-5--|
|-2-2-2-3--7-7-7-5-3-7-7-7-5-3--2-2-2-3--7-7-7-5-3-7-7-7-5-3--|
|-------------------------------------------------------------|
[ Tab from: http://www.guitaretab.com/t/the-kbc/153552.html ]
|-------------------------------------------------------------|
|-------------------------------------------------------------|
|-4-4-4--5-5-5-5-5-5-5-5-5-5-5--4-4-4-5--9-9-9-7-5-9-9-9-7-5--|
|-4-4-4--5-5-5-5-5-5-5-5-5-5-5--4-4-4-5--9-9-9-7-5-9-9-9-7-5--|
|-2-2-2--3-3-3-3-3-3-3-3-3-3-3--2-2-2-3--7-7-7-5-3-7-7-7-5-3--|
|-------------------------------------------------------------|

Guitar 2
|-------------------------------------------------------------|
|-------------------------------------------------------------|
|-4-4-4-5--9-9-9-7-5-9-9-9-7-5--4-4-4-5--9-9-9-7-5-9-9-9-7-5--|
|-x-x-x-x--x-x-x-x-x-x-x-x-x-x--x-x-x-x--x-x-x-x-x-x-x-x-x-x--|
|-2-2-2-3--7-7-7-5-3-7-7-7-5-3--2-2-2-3--7-7-7-5-3-7-7-7-5-3--|
|-------------------------------------------------------------|

|-------------------------------------------------------------|
|-------------------------------------------------------------|
|-4-4-4--5-5-5-5-5-5-5-5-5-5-5--4-4-4-5--9-9-9-7-5-9-9-9-7-5--|
|-x-x-x-x--x-x-x-x-x-x-x-x-x-x--x-x-x-x--x-x-x-x-x-x-x-x-x-x--|
|-2-2-2--3-3-3-3-3-3-3-3-3-3-3--2-2-2-3--7-7-7-5-3-7-7-7-5-3--|
|-------------------------------------------------------------|

Verse 01:23

Guitar2  come in at 01:37

Guitar1
|-----------------------------------------|
|-----------------------------------------|
|-----------------------------------------|
|-----------------------------------------|
|-3-3-3-3-3-3-3-3-3-3-3-3-3-3-3-3-3-3-3-3-|
|-----------------------------------------|
|                                         |
|-----------------------------------------|
|-----------------------------------------|
|-----------------------------------------|
|-----------------------------------------|
|-5-5-5-5-5-5-5-5-5-5-5-5-5-5-5-5-5-5-5-5-|
|-----------------------------------------|
|                                         |
|-----------------------------------------|
|-----------------------------------------|
|-----------------------------------------|
|-----------------------------------------|
|-7-7-7-7-7-7-7-7-7-7-7-7-7-7-7-7-7-7-7-7-|
|-----------------------------------------|
|                                         |
|-----------------------------------------|
|-----------------------------------------|
|-----------------------------------------|
|-----------------------------------------|
|-10-10-10-10-10-10-10-10-10-10-10-10-10--|
|-----------------------------------------|

Guitar2 01:37
|-----------------------------------------|
|-----------------------------------------|
|-5-5-5-5-5-5-5-5-5-5-5-5-5-5-5-5-5-5-5-5-|
|-x-x-x-x-x-x-x-x-x-x-x-x-x-x-x-x-x-x-x-x-|
|-3-3-3-3-3-3-3-3-3-3-3-3-3-3-3-3-3-3-3-3-|
|-----------------------------------------|
|                                         |
|-----------------------------------------|
|-----------------------------------------|
|-7-7-7-7-7-7-7-7-7-7-7-7-7-7-7-7-7-7-7-7-|
|-x-x-x-x-x-x-x-x-x-x-x-x-x-x-x-x-x-x-x-x-|
|-5-5-5-5-5-5-5-5-5-5-5-5-5-5-5-5-5-5-5-5-|
|-----------------------------------------|
|                                         |
|-----------------------------------------|
|-----------------------------------------|
|-9-9-9-9-9-9-9-9-9-9-9-9-9-9-9-9-9-9-9-9-|
|-x-x-x-x-x-x-x-x-x-x-x-x-x-x-x-x-x-x-x-x-|
|-7-7-7-7-7-7-7-7-7-7-7-7-7-7-7-7-7-7-7-7-|
|-----------------------------------------|
|                                         |
|-----------------------------------------|
|-----------------------------------------|
|-12-12-12-12-12-12-12-12-12-12-12-12-12--|
|--x--x--x--x--x--x--x--x--x--x--x--x--x--|
|-10-10-10-10-10-10-10-10-10-10-10-10-10--|
|-----------------------------------------|


Bridge
Botg Guitars 01:52
|---------------------------------------------|
|---------------------------------------------|
|-10-10-10--9-9-9--10-10--12-12-12--7-7-7-7-7-|
|-x--x--x---x-x-x--x--x---x--x--x---x-x-x-x-x-|
|-8--8--8---7-7-7--8--8---10-10-10--5-5-5-5-5-|
|---------------------------------------------| x4

Chorus 02:06
Guitar 1
|-------------------------------------------------------------|
|-------------------------------------------------------------|
|-4-4-4-5--9-9-9-7-5-9-9-9-7-5--4-4-4-5--9-9-9-7-5-9-9-9-7-5--|
|-4-4-4-5--9-9-9-7-5-9-9-9-7-5--4-4-4-5--9-9-9-7-5-9-9-9-7-5--|
|-2-2-2-3--7-7-7-5-3-7-7-7-5-3--2-2-2-3--7-7-7-5-3-7-7-7-5-3--|
|-------------------------------------------------------------|

|-------------------------------------------------------------|
|-------------------------------------------------------------|
|-4-4-4--5-5-5-5-5-5-5-5-5-5-5--4-4-4-5--9-9-9-7-5-9-9-9-7-5--|
|-4-4-4--5-5-5-5-5-5-5-5-5-5-5--4-4-4-5--9-9-9-7-5-9-9-9-7-5--|
|-2-2-2--3-3-3-3-3-3-3-3-3-3-3--2-2-2-3--7-7-7-5-3-7-7-7-5-3--|
|-------------------------------------------------------------|

|-------------------------------------------------------------|
|-------------------------------------------------------------|
|-4-4-4--5-5-5-5-5-5-5-5-5-5-5--4-4-4-5--9-9-9-7-5-9-9-9-7-5--|
|-4-4-4--5-5-5-5-5-5-5-5-5-5-5--4-4-4-5--9-9-9-7-5-9-9-9-7-5--|
|-2-2-2--3-3-3-3-3-3-3-3-3-3-3--2-2-2-3--7-7-7-5-3-7-7-7-5-3--|
|-------------------------------------------------------------|


Guitar 2
|-------------------------------------------------------------|
|-------------------------------------------------------------|
|-4-4-4-5--9-9-9-7-5-9-9-9-7-5--4-4-4-5--9-9-9-7-5-9-9-9-7-5--|
|-x-x-x-x--x-x-x-x-x-x-x-x-x-x--x-x-x-x--x-x-x-x-x-x-x-x-x-x--|
|-2-2-2-3--7-7-7-5-3-7-7-7-5-3--2-2-2-3--7-7-7-5-3-7-7-7-5-3--|
|-------------------------------------------------------------|

|-------------------------------------------------------------|
|-------------------------------------------------------------|
|-4-4-4--5-5-5-5-5-5-5-5-5-5-5--4-4-4-5--9-9-9-7-5-9-9-9-7-5--|
|-x-x-x-x--x-x-x-x-x-x-x-x-x-x--x-x-x-x--x-x-x-x-x-x-x-x-x-x--|
|-2-2-2--3-3-3-3-3-3-3-3-3-3-3--2-2-2-3--7-7-7-5-3-7-7-7-5-3--|
|-------------------------------------------------------------|

|-------------------------------------------------------------|
|-------------------------------------------------------------|
|-4-4-4--5-5-5-5-5-5-5-5-5-5-5--4-4-4-5--9-9-9-7-5-9-9-9-7-5--|
|-x-x-x-x--x-x-x-x-x-x-x-x-x-x--x-x-x-x--x-x-x-x-x-x-x-x-x-x--|
|-2-2-2--3-3-3-3-3-3-3-3-3-3-3--2-2-2-3--7-7-7-5-3-7-7-7-5-3--|
|-------------------------------------------------------------|

Outro
Can't really get it. It's a picking part hard to hear..
Related for Not Anymore tab
Advertisement will be closed in 10 seconds