Song name
# A B C D E F G H I J K L M N O P Q R S T U V W X Y Z

The Kid Lazer - Handle You Acoustic tab

verse:
  g5             a5            b5
e|---------------------------------------------------------------------------|
B|---------------------------------------------------------------------------|
G|---------------------------------------------------------------------------|
D|----------0-------------0-------------0------------------------------------|
A|------5-------------7-------------9----------------------------------------|
E|--3-------------5-------------7--------------------------------------------|

Chorus(chords):
    b5     d5     a5
e|---------------------------------------------------------------------------|
B|---------------------------------------------------------------------------|
G|--4------7------2----------------------------------------------------------|
D|--4------7------2----------------------------------------------------------|
A|--2------5------0----------------------------------------------------------|
E|---------------------------------------------------------------------------|
Tap to rate this tab
# A B C D E F G H I J K L M N O P Q R S T U V W X Y Z