Song name
# A B C D E F G H I J K L M N O P Q R S T U V W X Y Z

The Kill - Walking Dead tab

Band: The Kill
Album: The Soundtrack To Your Violence
Song: Walking Dead



Suffixes for bend:
fb - full bend       hb - half bend
qb - quarter bend    t - tap bend
^ - Hold bend        r - release bend
~ - vibrato bend

Suffixes for harmonic:
ph - pinched harmonic      nh  natural harmonic
ah  artificial harmonic   hh  harp harmonic

Suffixes for mute:
.  palm mute            x  staccato mute
, - light palm mute      ; - heavy palm mute

Other:
/ - slide up to            \ - slide down to       
h - hammer on              p - pull off
 - sustained note         * - see comment
" - tremolo note           <> - Trill
L  left channel only      R  right channel only
= - 12 string guitar part 

Tuning E A D G B E

Riff 1a (0:00) play twice
|----------------------------------------------------------|
|----------------------------------------------------------|
|----------------------------------------------------------|
|----------------------------------3--------3--------3-----|
|-1111--------1111--------1111-----1--3--2--1--3--2--1--2--|
|-----11110000----11110000----0000----1--0-----1--0-----0--|

Riff 1b (0:08)
|----------------------------------------------------------|
|----------------------------------------------------------|
|----------------------------------------------------------|
|----------------------------------3--------3--------3-----|
|-1111--------1111-----------------1--3--2--1--3--2--1--2--|
|-----11110000----1111000055550000----1--0-----1--0-----0--|

Riff 1a x 1/2 (0:12)


Riff 2a (0:16) play 8 times
|---------------------------------|
|---------------------------------|
|---------------------------------|
|---------------2222----5555------|
|-3--2--22223333----3333----3333--|
|-1--0----------------------------|

Riff 2b (0:16)
|---------------------------------|
|---------------------------------|
|---------------------------------|
|---------------2222--------------|
|-3--2--22223333----333333333333--|
|-1--0----------------------------|

Note regarding Riff 2:
The timing here sounds a little odd, as the first time 2a is played, it is
used as a fill. It is still played 8 times, but while you subconsciously
count in your head, it will sound like 7 because you will most likely ignore
the time it is used as a fill. 2b is merely the end to that passage of the
song.

Riff 3 (0:34) play 4 times
|---------------------------|
|---------------------------|
|---------------------------|
|-3--------2--------2-------|
|-1--4-3-2-1--4-3-2-1--4-3--|
|----2-1-0----2-1-0----2-1--|

Riff 4 (0:42) play 4 times
|----------------------------|
|----------------------------|
|----------------------------|
|----------------------------|
|-11"--10"---0"---2"--1"-0"--|
|-0-"--0-"---1"---3"--2"-1"--|

Riff 1a x 2 (0:57)

End (1:07)
|----|
|----|
|----|
|----|
|-2--|
|-0--|
Tap to rate this tab
# A B C D E F G H I J K L M N O P Q R S T U V W X Y Z