Song name
# A B C D E F G H I J K L M N O P Q R S T U V W X Y Z

The Kill - We Want Blood tab

Band: The Kill
Album: The Soundtrack To Your Violence
Song: We Want Blood



Suffixes for bend:
fb - full bend       hb - half bend
qb - quarter bend    t - tap bend
^ - Hold bend        r - release bend
~ - vibrato bend

Suffixes for harmonic:
ph - pinched harmonic      nh  natural harmonic
ah  artificial harmonic   hh  harp harmonic

Suffixes for mute:
.  palm mute            x  staccato mute
, - light palm mute      ; - heavy palm mute

Other:
/ - slide up to            \ - slide down to       
h - hammer on              p - pull off
 - sustained note         * - see comment
" - tremolo note           <> - Trill
L  left channel only      R  right channel only
= - 12 string guitar part 

Tuning E A D G B E

Riff 1 (0:00) play 4 times
|---------------------------|
|---------------------------|
|---------------------------|
|-----55552222--------------|
|---------------------------|
|-0000--------222211112222--|

Fill 1 (0:06)
|-----------------|
|-----------------|
|-----------------|
|-----------------|
|-2-------6-------|
|-0-------5-------|

Riff 2a (0:09) play 3 times
|--------------------------|
|--------------------------|
|--------------------------|
|-----22112222-------------|
|--------------------------|
|-0000--------111144443333-|

Riff 2b (0:13) play 5 times
|----------------------|
|----------------------|
|----------------------|
|-----22112222---------|
|-------------3--6--5--|
|-0000--------1--4--3--|


Riff 3 (0:21) play 4 times
|-------------------|
|-------------------|
|-------------------|
|-------------------|
|-------------------|
|-3344113333440033--|


Riff 4 (0:24) play 4 times
|----------------------|
|----------------------|
|----------------------|
|------13--------------|
|-2----11----4----4----|
|-0----------2----3----|

Riff 1 x 3/4 (0:29)

End (0:33)
|----------------------|
|----------------------|
|----------------------|
|-----55552222---------|
|-------------4--3--3--|
|-0000--------2--1--1--|
              .  .
Tap to rate this tab
 
# A B C D E F G H I J K L M N O P Q R S T U V W X Y Z