The Killigans - Lessons From The Empty Glass tab

     E  E  E  E  E  E  E  E     E  E  E  E  E  E  E  E   
E||--------------------------|--------------------------|
B||--------------------------|--------------------------|
G||--2--4--------------------|--4-----------4--4--4-----|
D||--------0--4--0--4--2--0--|-----0--2--2-----------0--|
A||--------------------------|--------------------------|
E||--------------------------|--------------------------|


  E  E  E  E  E  E  E  E     E  E  E  E  E  E  E  E   
--------------------------|--------------------------|
--------------------------|--------------------------|
--------------------------|--------------------------|
--0--0--4--2--4-----------|--------4--2--2--4--------|
-----------------0--2--2--|--2--0--------------0--2--|
--------------------------|--------------------------|


  E  E  E  E  E  E  E  E     E  E  E  E  E  E  E  E   
--------------------------|--------------------------|
--------------------------|--------------------------|
--------------------------|--------------4--4--4-----|
--------------------4--0--|--2--2--4--0-----------0--|
--2--2--5--4--2--0--------|--------------------------|
--------------------------|--------------------------|


  E  E  E  E  E  E  E  E     E  H        Q    E    
--------------------------|----------------------||
--------------------------|----------------------||
-----------------4--------|----------------------||
--0--0--4--2--0-----0--2--|--2--0----------------||
--------------------------|----------------------||
--------------------------|----------------------||

Duration Legend
---------------
W - whole
H - half
Q - quarter
E - 8th
S - 16th
T - 32nd
X - 64th
. - note dotted
|-n-|  - n-tuplets


Tablature Legend
----------------
L - tied note
x - dead note
g - grace note
(n) - ghost note
> - accentuated note
NH - natural harmonic
Tap to rate this tab
 
# A B C D E F G H I J K L M N O P Q R S T U V W X Y Z