Song name
# A B C D E F G H I J K L M N O P Q R S T U V W X Y Z

The Killing Tree - To Thems Fightin Words tab

Intro 4x
e|---------------------------------------------------------------------------|
B|---------------------------------------------------------------------------|
G|---------------------------------------------------------------------------|
D|0~-0~------------------------0~--------------------------------------------|
A|0~-0~--00-5p0----------------0~--------------------------------------------|
D|0~-0~--------7h8-7p0---------0~--------------------------------------------|
         ..                 end on

Verse/Chorus x2                                           (Chorus = not muted)
e|---------------------------------------------------------------------------|
B|---------------------------------------------------------------------------|
G|---------------------------------------------------------------------------|
D|--------------12-15-8-10-7-3-----------------------------------------------|
A|--------------12-15-8-10-7-3-----------------------------------------------|
D|--------------12-15-8-10-7-3-----------------------------------------------|
  pickslide      .  . .  . . .

Breakdown Pt.1
e|---------------------------------------------------------------------------|
B|---------------------------------------------------------------------------|
G|---------------------------------------------------------------------------|
D|12-15-8----------10--------------------------------------------------------|
A|12-15-8-12-10-12-10--------------------------------------------------------|
D|12-15-8----------10--------------------------------------------------------|
                    .
Breakdown Pt.2
e|---------------------------------------------------------------------------|
B|---------------------------------------------------------------------------|
G|---------------------------------------------------------------------------|
D|0-------------------------------------------------12*----------------------|
A|0-------------------------------------------------12*----------------------|
D|0-------------------------------------------------12*----------------------|
Just mess around with muting the strings open end on

Post Breakdown
e|---------------------------------------------------------------------------|
B|---------------------------------------------------------------------------|
G|---------------------------------------------------------------------------|
D|---------------------------------------------------------------------------|
A|12-15-8-10-7-3-------------------------------------------------------------|
D|---------------------------------------------------------------------------|
   .  . .  . . .
Tap to rate this tab
# A B C D E F G H I J K L M N O P Q R S T U V W X Y Z