Song name
# A B C D E F G H I J K L M N O P Q R S T U V W X Y Z

The Killing Tree - Switchblade Architect tab

-------------------------------------------------------------------------------
			  Switchblade Architect - The Killing Tree
-------------------------------------------------------------------------------

Tuning: Standard

e|---------------------------------------------------------------------------|
B|---------------------------------------------------------------------------|
G|7--5h7---5-7-8-10-8-7-5--7-5h7---7-----------------------------------------|
D|0--0-0---0-0-0-0--0-0-0--0-0-0---6-----------------------------------------|
A|---------------------------------------------------------------------------|
E|---------------------------------------------------------------------------|

e|----------------------------------------------------------------------------|
B|----------------------------------------------------------------------------|
G|7--5h7---5-7-8-10-8-7-5-------3-2-2---3-2-2---------------------------------|
D|0--0-0---0-0-0-0--0-0-0-------1-0-3---1-0-3---------------------------------|
A|----------------------------------------------------------------------------|
E|----------------------------------------------------------------------------|


Play it twice


************************************

| /   slide up
| \   slide down
| h   hammer-on
| p   pull-off
| ~   vibrato
| +   harmonic
| x   Mute note
| b   Bend
| pb  Pre-bend
| br  Bend release
| pbr Pre-bend release
| brb Bend release bend

************************************
Tap to rate this tab
# A B C D E F G H I J K L M N O P Q R S T U V W X Y Z