Song name
# A B C D E F G H I J K L M N O P Q R S T U V W X Y Z

The Killing Tree - Everything You Had Is Gone tab

-------------------------------------------------------------------------------
                                      Everything You Had Is Gone - The Killing Tree
-------------------------------------------------------------------------------
Tabbed by: WildGrim
E-mail: grim-117@hotmail.com

Tuning: half-step down

There are definitely some mistakes but listening to the song along with this should help 
you get it.

-- Intro --
Guitar one - 4x
eb|--------------------------------------------------|
Bb|-------------------------7------------------------|
Gb|-10-6-8---------------10---10-8-6-8---------------|
Db|--------------------------------------------------|
Ab|--------------------------------------------------|
Eb|--------000--000--000---------------0--0--0--0--0-|
           ***  ***  ***               *  *  *  *  *
Guitar two - 4x
eb|--------------------------------------------------|
Bb|--------------------------------------------------|
Gb|-4-4------------------4--4--4--4------------------|
Db|-4-4-2----------------4--4--4--4--2---------------|
Ab|-2-2-2----------------2--2--2--2--2---------------|
Eb|-----0--000--000--000-------------0-0--0--0--0--0-|
           ***  ***  ***               *  *  *  *  *

Guitar one and two - 2x
eb|-------------------------------------------------|
Bb|-------------------------9-9-9-9-9-9-9-9-9-9-9-9-|
Gb|-8-8-8-8-8-8-8-8-8-8-8-8-9-9-9-9-9-9-9-9-9-9-9-9-|
Db|-9-9-9-9-9-9-9-9-9-9-9-9-------------------------|
Ab|-7-7-7-7-7-7-7-7-7-7-7-7-7-7-7-7-7-7-7-7-7-7-7-7-|
Eb|-------------------------------------------------|

Guitar one - 2x
eb|--------------------------------------------------|
Bb|-------------------------7------------------------|
Gb|-10-6-8---------------10---10-8-6-8---------------|
Db|--------------------------------------------------|
Ab|--------------------------------------------------|
Eb|--------000--000--000---------------0--0--0--0--0-|
           ***  ***  ***               *  *  *  *  *
Guitar two - 4x
eb|--------------------------------------------------|
Bb|--------------------------------------------------|
Gb|-4-4------------------4--4--4--4------------------|
Db|-4-4-2----------------4--4--4--4--2---------------|
Ab|-2-2-2----------------2--2--2--2--2---------------|
Eb|-----0--000--000--000-------------0-0--0--0--0--0-|
           ***  ***  ***               *  *  *  *  *

After the second time, guitar one plays this 2x:
eb|-----9----------------------------9---------------|
Bb|-6-7----222--222--222-6-6-6-7-7-7---2--2--2--2--2-|
Gb|--------------------------------------------------|
Db|--------------------------------------------------|
Ab|--------------------------------------------------|
Eb|--------------------------------------------------|

Guitar one and two - 4x
eb|-------------------------------------------------|
Bb|-------------------------9-9-9-9-9-9-9-9-9-9-9-9-|
Gb|-8-8-8-8-8-8-8-8-8-8-8-8-9-9-9-9-9-9-9-9-9-9-9-9-|
Db|-9-9-9-9-9-9-9-9-9-9-9-9-------------------------|
Ab|-7-7-7-7-7-7-7-7-7-7-7-7-7-7-7-7-7-7-7-7-7-7-7-7-|
Eb|-------------------------------------------------|

-- Verse --
Guitar one and two - 4x                                   End on this
eb|---------------------------------------------------------|-----|
Bb|---------------------------------------------------------|-----|
Gb|-4-----------------------4-4-----------------------------|--7--|
Db|-4-----------------------4-4-----------------------------|--7--|
Ab|-2-----------------------2-2---------------------------3-|--5--|
Eb|---0-0-0-0-0-0-0-0-0-0-0-----0-0-0-0-0-0-0-7-3-2-0-2-3---|-----|
      * * * * * * * * * * *     * * * * * * *

-- Chorus --
Guitar one                                    Play this part 4x with guitar two
eb|----------------------------------------|
Bb|-4-44-4-4--4-44-4-4--4-44-4-4-----------|
Gb|-4-44-4-4--4-44-4-4--4-44-4-4--6-66-6-6-|
Db|-2-22-2-2--2-22-2-2--2-22-2-2-----------|
Ab|-------------------------------4-44-4-4-|
Eb|----------------------------------------|

    x4
eb|----------------------------------------|
Bb|-4-44-4-4--5-55-5-5--4-44-4-4-----------|
Gb|-4-44-4-4--4-44-4-4--4-44-4-4--6-66-6-6-|
Db|-2-22-2-2--2-22-2-2--2-22-2-2-----------|
Ab|-------------------------------4-44-4-4-|
Eb|----------------------------------------|

Guitar two - x8
eb|----------------------------------------|
Bb|----------------------------------------|
Gb|---------------------4-44-4-4--4-44-4-4-|
Db|-1-11-1-1--2-22-2-2--4-44-4-4--4-44-4-4-|
Ab|-2-22-2-2--2-22-2-2--2-22-2-2--2-22-2-2-|
Eb|-0-00-0-0--0-00-0-0---------------------|

Guitar one
eb|-----------------------------------------------------------------------------------|
Bb|-----------------------------------------------------------------------------------|
Gb|-11--11-11-11-11-11-11-13--13-13-13-13-13-13-11--11-11-11-11-11-11-11-11-11-11-11--|
Db|-----------------------------------------------------------------------------------|
Ab|-9---9--9--9--9--9--9--11--11-11-11-11-11-11-9---9--9--9--9--9--9--9--9--9--9--9---|
Eb|-----------------------------------------------------------------------------------|

Play this part 4x
eb|----|    |----|    |---|    |----|
Bb|----| x8 |----| x8 |---| x3 |----| x12
Gb|-15-|    |-13-|    |-8-|    |-11-|
Db|----|    |----|    |---|    |----|
Ab|-13-|    |-11-|    |-6-|    |-9--|
Eb|----|    |----|    |---|    |----|

-- Post Chorus --
x4
eb|----------------------------------------------------------------------------------|
Bb|----------------------------------------------------------------------------------|
Gb|-13-------13-------13-------13-------13-------13-11-----11-----11-9--9-9-9-9-9-9--|
Db|----10-11----10-11----10-11----10-11----10-11-------8-9----8-9----9--9-9-9-9-9-9--|
Ab|------------------------------------------------------------------7--7-7-7-7-7-7--|
Eb|----------------------------------------------------------------------------------|

-- Verse --
Play the same thing as before, but this time, end on this:
eb|---|
Bb|---|
Gb|---|
Db|-2-|
Ab|-2-|
Eb|-0-|

-- Bridge --
Both guitars - x4                End on this
eb|-------------------------------|---|
Bb|-------------------------------|---|
Gb|-------------------------4-4-4-|-7-|
Db|-2-2-2-2-2-2-------------4-4-4-|-7-|
Ab|-2-2-2-2-2-2-------------2-2-2-|-5-|
Eb|-0-0-0-0-0-0-3-0-0-2-0-0-------|---|

Guitar one - x4
eb|-----------------------------------------------------------------|
Bb|-7---7---7---7---7---7---7---7---7---7---7---7---7---7---7---7---|
Gb|---8---8---8---8---8---8---8---8---8---8---8---8---8---8---8---8-|
Db|-----------------------------------------------------------------|
Ab|-----------------------------------------------------------------|
Eb|-----------------------------------------------------------------|
    * * * * * * * * * * * * * * * * * * * * * * * * * * * * * * * *

Guitar two - x6
eb|-----------------------------------------------------------------|
Bb|-----------------------------------------------------------------|
Gb|-----------------------------------------------------------------|
Db|-------------------------------------------9~--------------------|
Ab|-------------------------------------------9~--------------------|
Eb|-0-0---------------------0-0-0-0-0---------7~--------------------|
    * *                     * * * * *

Guitar one - x2
eb|-----------------------------------------------------------------|
Bb|-7---7---7---7---7---7---6---7---7---7---7---7---9---7---6---7---|
Gb|---8---8---8---8---8---8---8---8---8---8---8---8---8---8---8---8-|
Db|-----------------------------------------------------------------|
Ab|-----------------------------------------------------------------|
Eb|-----------------------------------------------------------------|

Then this x2
eb|------------------------------------------------------------------|
Bb|-11---9---7---6---7---9---7---6---7---7---7---7---7---7---7---7---|
Gb|----8---8---8---8---8---8---8---8---8---8---8---8---8---8---8---8-|
Db|------------------------------------------------------------------|
Ab|------------------------------------------------------------------|
Eb|------------------------------------------------------------------|

Guitar two - x2
eb|-------------|
Bb|-------------|
Gb|----------4~-|
Db|--1~--2~--4~-|
Ab|--2~--2~--2~-|
Eb|--0~--0~-----|

-- Chorus --
Guitar one - x4
eb|----------------------------------------|
Bb|-4-44-4-4--5-55-5-5--4-44-4-4-----------|
Gb|-4-44-4-4--4-44-4-4--4-44-4-4--6-66-6-6-|
Db|-2-22-2-2--2-22-2-2--2-22-2-2-----------|
Ab|-------------------------------4-44-4-4-|
Eb|----------------------------------------|

Guitar two - x8
eb|----------------------------------------|
Bb|----------------------------------------|
Gb|---------------------4-44-4-4--4-44-4-4-|
Db|-1-11-1-1--2-22-2-2--4-44-4-4--4-44-4-4-|
Ab|-2-22-2-2--2-22-2-2--2-22-2-2--2-22-2-2-|
Eb|-0-00-0-0--0-00-0-0---------------------|

Guitar one
eb|-----------------------------------------------------------------------------------|
Bb|-----------------------------------------------------------------------------------|
Gb|-11--11-11-11-11-11-11-13--13-13-13-13-13-13-11--11-11-11-11-11-11-11-11-11-11-11--|
Db|-----------------------------------------------------------------------------------|
Ab|-9---9--9--9--9--9--9--11--11-11-11-11-11-11-9---9--9--9--9--9--9--9--9--9--9--9---|
Eb|-----------------------------------------------------------------------------------|

Play this part x4                                    End on this
eb|----|    |----|    |---------------------------------|---|
Bb|----| x8 |----| x8 |---------------------------------|---|
Gb|-15-|    |-13-|    |-8-8-8-11-11-11-9-9-11-11-11-9-8-|-8-|
Db|----|    |----|    |---------------------------------|-8-|
Ab|-13-|    |-11-|    |-6-6-6-9--9--9--7-7-9--9--9--7-6-|-6-|
Eb|----|    |----|    |---------------------------------|---|

Guitar two ends on this
eb|---|
Bb|---|
Gb|---|
Db|-1-|
Ab|-2-|
Eb|-0-|
Tap to rate this tab
# A B C D E F G H I J K L M N O P Q R S T U V W X Y Z