Guitaretab - guitar tabs
Song name
# A B C D E F G H I J K L M N O P Q R S T U V W X Y Z

The Killing Tree - Mascara Original Sin tab

-----------------------------------------------------------------------
Mascara (Original Sin)  The Killing Tree
-----------------------------------------------------------------------
Tabbed by: GRENDLES
Email: magicpie11@hotmail.com

This is a pretty good song, I was surprised no one has tabbed it yet.  I only have the 
but Ill tab the rest of the song...eventually.

[ Tab from: http://www.guitaretab.com/t/the-killing-tree/86339.html ]
e|------------------------------------------------------------------|x4
B|------------------------------------------------------------------|
G|-9-9-9-9-12-12-12-10-10-10-7-7-7-9-9-9----------------------------|
D|-7-7-7-7-10-10-10--8--8--8-5-5-5-7-7-7----------------------------|
A|------------------------------------------------------------------|
E|------------------------------------------------------------------|

e|------------------------------------------------------------------|x4
B|------------------------------------------------------------------|
G|------------------------------------------------------------------|
D|-2-2-2-5-5-5-3-3-3-0-0-0-2-3-2-0--2-2-2-5-5-5-3-3-3-0-0-0-8-8-8-5-|
A|-2-2-2-5-5-5-3-3-3-0-0-0-2-3-2-0--2-2-2-5-5-5-3-3-3-0-0-0-8-8-8-5-|
E|------------------------------------------------------------------|


| /  slide up
| \  slide down
| h  hammer-on
| p  pull-off
| ~  vibrato
| +  harmonic
| x  Mute note
=======================================================================
Related for Mascara Original Sin tab
Mascara Original Sin chords by The Killing Tree