Guitaretab - guitar tabs
Song name
# A B C D E F G H I J K L M N O P Q R S T U V W X Y Z

The Killing Tree - Prelude To Pain tab

PRELUDE TO PAIN
THE KILLING TREE
TABBED BY: Rightclicked


|---------------------------------------------------|   |----|
|---------------------------------------------------|   |----|
|---------------------------------------------------| 4x|----|last time
|--9--8--5--10-10-----------------------------------|   |--2~|
|--X--X--X--X--x------------------------------------|   |--2~|
|--7--6--3--8--8------------------------------------|   |--0~|

(this part Iím not too sure about, so I simplified it)

|------------------------------------------|
|------------------------------------------|
|------------------------------------------|1x
|----2-----4--5--2----2---4-5--------------|
|-------------------1---1------------------|
|-0----0-----------------------------------|

|------------------------------------------|
|------------------------------------------|
|------------------------------------------|
|----2-----4--5--2-------------------------|
|-------------------1----------------------|
|-0----0-----------------------------------|
-----------------------------------------------------------------------
Play this part twice, on the second time play -----| Do all this 2x
                                                   V
  Guitar 1: (part one)                           (part 2)               
|------------------------------------------|    |-------------|
|------------------------------------------|    |-------------|
|------------------------------------------|    |-------------|
|------------------------------------------|    |-------------|
|---------------3-2-----------------5------|    |-------------|
|-0-0-0-1-0-0-1-----3-1-1-1-1-3-1-0--------|    |-6-5-3-5-6-1-|

Guitar 2 (after second time of guitar 1 part 1)
Part 1
|------------------------------------------|    |-------------------|
|------------------------------------------|    |-------------------|
|------------------------------------------|    |-------------------|
|------------------------------------------|2x  |-------------------|
|--77787557-888-10-8755--------------------|    |-13 12 10 12 13-12-|
|------------------------------------------|    |-------------------|

Guitar 1:
|-----------------------------------------|
|-----------------------------------------|
|-----------------------------------------|
|-----------------------------------------| 4x
|-222--22222------------------------------|
|-000--00000------------------------------|
  ...  .....









Guitar 2:

|---------------------------------------------------------------|
|---------------------------------------------------------------|
|---------------------------------------------------------------|
|-----------------------------------------------------------8b--|
|--878787878787878787878787878787878787878787878787878787878----|
|---------------------------------------------------------------|

                      ~on second time~  
|-----------------|    |-----------|    
|-----------------|    |-----------|    
|-----------------|    |----9------|    
|-----------------| 2x |------9-8--|    
|----2------------|    |-----------|    
|-0~-------6~-----|    |-----------|    
                         
                      ~on second time~   
|-----------------|    |-------------|
|-----------------|    |-------------|
|-----------------|    |-------------|    DO ALL OF THE FOLLOWING 2X
|-----------------|    |-------------|       
|----2------------|    |-----3-2-----|
|-0~-------6~-----|    |-0-1-----3-1-|

|---------------------------------------------|
|---------------------------------------------|
|---------------------------------------------| x4
|--------------------------------------3------|
|------------------------------3-2------------|
|--000-000-000-000-000-000-001-----3-1--------|
   ... ... ... ... ... ... ... . . . . .  
[ Tab from: http://www.guitaretab.com/t/the-killing-tree/93076.html ]
|------------------------------------------------|
|------------------------------------------------|
|--9>-10>7>-55-4---------------------------------| 
|--x>-x>-x>-xx-x---------------------------------|  ~PAUSE~
|--7>-8>-5>-33-2ó87~---87~-----87~-----87~---8*--|
|----------------------------------------|
         EIGHT DOLLAR HAIRCUT, FUCK YOU!

  Guitar 1: (part one)                           (part 2)               
|------------------------------------------|    |-------------|
|------------------------------------------|    |-------------|
|------------------------------------------|    |-------------|
|------------------------------------------|    |-------------|
|---------------3-2-----------------5------|    |-------------|
|-0-0-0-1-0-0-1-----3-1-1-1-1-3-1-0--------|    |-6-5-3-5-6-1-|






Guitar 2 (after second time of guitar 1 part 1)
Part 1
|------------------------------------------|    |-------------------|
|------------------------------------------|    |-------------------|
|------------------------------------------|    |-------------------|
|------------------------------------------|2x  |-------------------|
|--77787557-888-10-8755--------------------|    |-13 12 10 12 13-12-|
|------------------------------------------|    |-------------------|

Guitar 1:
|-----------------------------------------|
|-----------------------------------------|
|-----------------------------------------|
|-----------------------------------------| 4x
|-222--22222------------------------------|
|-000--00000------------------------------|
  ...  .....


Guitar 2:

|---------------------------------------------------------------|
|----------------------------------------------9b---------------|
|---------------------------------10-9>>>-----------------------|
|---------------------------------------------------------------|
|--8787878787878787878787878787878------------------------------|
|---------------------------------------------------------------|

                                         (on 4th and 5th)
|---------------------------------------------|  |--------------|
|---------------------------------------------|  |-12-12-11-11--|
|---------------------------------------------|  |-12----11-----|
|--------------------------------------3------|  |--------------|
|------------------------------3-2------------|  |--------------|
|--000-000-000-000-000-000-001-----3-1--------|  |--------------|

(After this, thereís just a ton of pick slides and cacophony)

                                                  (on 2nd and 4th)	
|---------------------------------------------|  |--------------|
|---------------------------------------------|  |-12-12-11-11--|
|---------------------------------------------|  |-12----11-----|
|--------------------------------------3------|  |--------------|
|------------------------------3-2------------|  |--------------|
|--000-000-000-000-000-000-001-----3-1--------|  |--------------|

                      ~on second time~  
|-----------------|    |-----------|    
|-----------------|    |-----------|    
|-----------------|    |----9------|    
|-----------------| 2x |------9-8--|    
|----2------------|    |-----------|    
|-0~-------6~-----|    |-----------|    
                         
                      

                       ~on second time~   

|-----------------|    |-------------|
|-----------------|    |-------------|
|-----------------|    |-------------|    DO ALL OF THE FOLLOWING 2X
|-----------------|    |-------------|       
|----2------------|    |-----3-2-----|
|-0~-------6~-----|    |-0-1-----3-1-|

Bass plays ^^, after second time bass plays it:

*clean guitar*
|-----------|     
|-----------|    
|----9------|    
|------9-8--|    
|-----------|    
|-----------| 

Then (clean guitar again)
|---------------|
|---------------|
|---------------|
|---------------|       
|-----3-2-------|
|-0-1-----3-1-0~|

The bass plays out the last few notes, and the song is over.

Related for Prelude To Pain tab