Guitaretab - guitar tabs
Song name
# A B C D E F G H I J K L M N O P Q R S T U V W X Y Z

The Killing Tree - Counting To Infinity tab

COUNTING TO INFINITY
Artist: The Killing Tree
Tabbed by: Rightclicked

Tuning: Drop D Standard

Intro
Play all of the following 2x:
                                                                               After 3rd time
|-----------------------------------------------|    |----------------|
|--3-3------------------3-3---------------------|    |----------------|
|--2-2------------------2-2---------------------| 3x |----------------|  
|--0-0-------3-0-3-0----------3-0-3-0-----------|    |----------------|
|--0-0----3-0-3-0---0-0------3-0-3-0--6---------|    |--9999-6666-----|
|--0-0----3-0-3-0---0-0------3-0-3-0------------|    |----------------|
[ Tab from: http://www.guitaretab.com/t/the-killing-tree/95589.html ]
Verse:
|------------------------------------------------|
|------------------------------------------------|
|------------------------------------------------| x8
|----------------------------6-5-----------------|
|---5555--8-55-8-55555------6--------------------|
|------------------------------------------------|
     ****       **    *****
After 8th time:
|--------------------------------|
|--------------------------------|
|-----533------------------------|
|-----533---0x-------------------|
|-----333---0x-------------------|
|-------------0x-----------------|
                   *

2nd Guitar (making violin-like sound)
|-------------------------------|
|-------------------------------|
|-------------------------------|
|-------------------------------|
|-5~---8ó3~--8---2~--8---1~-----|

Chorus (this has a weird strumming pattern, but itís not that hard to figure out)
|----------------------------------------------------|
|------------------33333-----------------------------|
|------------------22222-----------------------------|
|-----33--5555--00000-----3-2----3-----3-------------|
|-----33--5555--00000-----3-2----3-----3-------------|
|-----33--5555--00000-----3-2-0--3--0--3-------------|

The bridge is the chorus/verse with a different strumming pattern. Listen to figure which part to play.

Related for Counting To Infinity tab