Guitaretab - guitar tabs
Song name
# A B C D E F G H I J K L M N O P Q R S T U V W X Y Z

The Killing Tree - Dressed To Fuck tab

		Dressed To Fuck - The Killing Tree
----------------------------------------------------------------------------
     So I was looking through the tabs for The Killing Tree. There wasn't a tab for this 
It's pretty
hard to get your hands on the download for this song. But if you happen to come across it,
definately pick it up. Now, on to the tab. I feel pretty confident with it as a whole,
there are a few parts that can probably be redone. So if you have comments or
or the like, email me or leave a comment.

Tabbed by:astro0930
Email:devils38matt@yahoo.com

Tuning: Drop D and down half step


|Guitar One|
 Intro
eb|------------|----------------|
Bb|------------|----------------|
Gb|------------|----------------|
Db|222-2-2-222-|222-2-2-222-10--|
Ab|222-2-2-222-|222-2-2-222-10--|
Db|222-2-2-222-|222-2-2-222-10--|

Verse
|Guitar One|
  Repeat 5x
eb|------------|----------------|
Bb|------------|----------------|
Gb|------------|----------------|
Db|222-2-2-222-|222-2-2-222-8-10|
Ab|222-2-2-222-|222-2-2-222-8-10|
Db|222-2-2-222-|222-2-2-222-8-10|


|Guitar Two|
 Repeat 5x

eb|------------|-----------------|
Bb|------------|-----------------|
Gb|999-9-9-999-|999-9-9-999-15-17|
Db|999-9-9-999-|999-9-9-999-15-17|
Ab|777-7-7-777-|777-7-7-777-13-15|
Db|------------|-----------------|

PreChorus
 |Guitar One|

eb|---------|
Bb|---------|
Gb|---------|
Db|2~-8~-5~-|
Ab|2~-8~-5~-|
Db|2~-8~-5~-|

 |Guitar Two|
  Repeat 4x
eb|----------------|
Bb|----------------|
Gb|-11~-12~-12--11-|
Db|-11~-12~-12--11-|
Ab|--9~-10--10---9-|
Eb|----------------|

Then play this
eb|------------|
Bb|------------|
Gb|-12-11-9-7--|
Db|-12-11-9-7--|
Ab|-10--9-7-5--|
Db|------------|


Chorus
|Both Guitars|
 Repeat 2x
eb|--------------------------|-----------------|----------------|----------|
Bb|--------------------------|-----------------|----------------|----------|
Gb|----9-9-----9-9--55555555-|-----------------|----9-9-----9-9-|----------|
Db|2-2-9-9-7-7-9-9--55555555-|-5-555555-4-2-222|2-2-9-9-7-7-9-9-|7~-10~----|
Ab|2-2-7-7-7-7-7-7--33333333-|-5-555555-4-2-222|2-2-7-7-7-7-7-7-|7~-10~----|
Db|2-2-----7-7---------------|-5-555555-4-2-222|2-2-----7-7-----|7~-10~----|

PostChorus
 |Guitar One|
  Repeat 2x
eb|----------|
Bb|----------|
Gb|----------|
Db|2-555-44--|
Ab|2-555-44--|
Db|2-555-44--|

PreVerse
|Guitar One|

eb|------------|-----------------|
Bb|------------|-----------------|
Gb|------------|-----------------|
Db|222-2-2-222-|222-2-2-222-8-10-|
Ab|222-2-2-222--222-2-2-222-8-10-|
Db|222-2-2-222-|222-2-2-222-8-10-|


Verse
|Guitar One|
  Repeat 5x
eb|------------|----------------|
Bb|------------|----------------|
Gb|------------|----------------|
Db|222-2-2-222-|222-2-2-222-8-10|
Ab|222-2-2-222-|222-2-2-222-8-10|
Db|222-2-2-222-|222-2-2-222-8-10|

|Guitar Two|
 Repeat 5x

eb|------------|-----------------|
Bb|------------|-----------------|
Gb|999-9-9-999-|999-9-9-999-15-17|
Db|999-9-9-999-|999-9-9-999-15-17|
Ab|777-7-7-777-|777-7-7-777-13-15|
Db|------------|-----------------|


 |Guitar One|
eb|---------|
Bb|---------|
Gb|---------|
Db|5-4-2-0--|
Ab|5-4-2-0--|
Db|5-4-2-0--|

 |Guitar Two|
eb|------------|
Bb|------------|
Gb|12-11-9-7---|
Db|12-11-9-7---|
Ab|10--9-7-5---|
Db|------------|


 |Guitar One|

eb|------------|----------------|
Bb|------------|----------------|
Gb|------------|----------------|
Db|222-2-2-222-|222-2-2-222-8-10|
Ab|222-2-2-222-|222-2-2-222-8-10|
Db|222-2-2-222-|222-2-2-222-8-10|


 |Guitar Two|

eb|------------|-----------------|
Bb|------------|-----------------|
Gb|999-9-9-999-|999-9-9-999-15-17|
Db|999-9-9-999-|999-9-9-999-15-17|
Ab|777-7-7-777-|777-7-7-777-13-15|
Db|------------|-----------------|

 |Guitar One|
[ Tab from: http://www.guitaretab.com/t/the-killing-tree/96439.html ]
eb|-----------|-----------|---------|
Bb|-----------|-----------|---------|
Gb|-----------|-----------|---------|
Db|222-2-2-222|222-2-2-222|-2-4-5-7-|
Ab|222-2-2-222|222-2-2-222|-2-4-5-7-|
Db|222-2-2-222|222-2-2-222|-2-4-5-7-|

 |Guitar Two|

eb|-----------|-----------|------------|
Bb|-----------|-----------|------------|
Gb|999-9-9-999|999-9-9-999|9-11-12-14--|
Db|999-9-9-999|999-9-9-999|9-11-12-14--|
Ab|777-7-7-777|777-7-7-777|7--9-10-12--|
Db|-----------|-----------|------------|

PreChorus
 |Guitar One|

eb|---------|
Bb|---------|
Gb|---------|
Db|2~-8~-5~-|
Ab|2~-8~-5~-|
Db|2~-8~-5~-|

 |Guitar Two|
  Repeat 4x
eb|----------------|
Bb|----------------|
Gb|-11~-12~-12--11-|
Db|-11~-12~-12--11-|
Ab|--9~-10--10---9-|
Db|----------------|

Then play this
eb|------------|
Bb|------------|
Gb|-12-11-9-7--|
Db|-12-11-9-7--|
Ab|-10--9-7-5--|
Db|------------|

Chorus
|Both Guitars|
 Repeat 2x
eb|--------------------------|-----------------|----------------|----------|
Bb|--------------------------|-----------------|----------------|----------|
Gb|----9-9-----9-9--55555555-|-----------------|----9-9-----9-9-|----------|
Db|2-2-9-9-7-7-9-9--55555555-|-5-555555-4-2-222|2-2-9-9-7-7-9-9-|7~-10~----|
Ab|2-2-7-7-7-7-7-7--33333333-|-5-555555-4-2-222|2-2-7-7-7-7-7-7-|7~-10~----|
Db|2-2-----7-7---------------|-5-555555-4-2-222|2-2-----7-7-----|7~-10~----|


Break
 |Guitar One|
  Repeat many times
eb|-------------------------|
Bb|-------------------------|
Gb|-5-5-5-4-4-4-------4-4-4-|
Db|-------------5-5-5-------|
Ab|-------------------------|
Db|-------------------------|

 |Guitar Two|
  Repeat 4x
eb|---------------------|
Bb|---------------------|
Gb|---------------------|
Db|-2-2--5-5--0-0-0-0---|
Ab|-2-2--5-5--0-0-0-0---|
Db|-2-2--5-5--0-0-0-0---|

|Guitar One|
  |-Repeat 3x---|             Then this
eb|-------------|----------------------------|
Bb|-------------|----------------------------|
Gb|-------------|----------------------------|
Db|2~--5~--0~---|-55555555-22222222-00000000-|
Ab|2~--5~--0~---|-55555555-22222222-00000000-|
Db|2~--5~--0~---|-55555555-22222222-00000000-|

 |Guitar Two|
                                 Repeat for a while?
eb|-----------|--------|-----------------------------------|
Bb|-----------|--------|-----------------------------------|
Gb|9~-12~--7~-|12-11--9|-121212121212-111111111111--999999-|
Db|9~-12~--7~-|12-11--9|-121212121212-111111111111--999999-|
Ab|7~-10~--5~-|10--9--7|-101010101010--9-9-9-9-9-9--777777-|
Db|-----------|--------|-----------------------------------|


Bridge
 |Guitar One|
   Repeat 3x      Pretty sure this isn't right..close enough
eb|-------------------------|----------5--5--5--3-3-3-3-3-3-|
Bb|-------------------------|--5-5-5---4--4--4--5-5-5-5-5-5-|
Gb|-------------------------|--4-4-4------------------------|
Db|-2-22-2-2-2-222----------|-------------------------------|
Ab|-2-22-2-2-2-222----------|-------------------------------|
Db|-------------------------|-------------------------------|

 |Guitar Two|
  Repeat a few times
eb|----------|
Bb|----------|
Gb|-9-9-9----|
Db|-9-9-9----|
Ab|-7-7-7----|
Db|----------|


Chorus
|Both Guitars|
 Repeat 2x
eb|--------------------------|-----------------|----------------|----------|
Bb|--------------------------|-----------------|----------------|----------|
Gb|----9-9-----9-9--55555555-|-----------------|----9-9-----9-9-|----------|
Db|2-2-9-9-7-7-9-9--55555555-|-5-555555-4-2-222|2-2-9-9-7-7-9-9-|7~-10~----|
Ab|2-2-7-7-7-7-7-7--33333333-|-5-555555-4-2-222|2-2-7-7-7-7-7-7-|7~-10~----|
Db|2-2-----7-7---------------|-5-555555-4-2-222|2-2-----7-7-----|7~-10~----|

Outro
 |Both Guitars|

eb|---------|
Bb|---------|
Gb|---------|
Db|7~--10~--|
Ab|7~--10~--|
Db|7~--10~--|
| /  slide up
| \  slide down
| h  hammer-on
| p  pull-off
| ~  vibrato
| +  harmonic
| x  Mute note
===============================================================================


| /  slide up
| \  slide down
| h  hammer-on
| p  pull-off
| ~  vibrato
| +  harmonic
| x  Mute note
============================================================================
Related for Dressed To Fuck tab
Advertisement will be closed in 10 seconds