Guitaretab - guitar tabs
Song name
# A B C D E F G H I J K L M N O P Q R S T U V W X Y Z

The Killing Tree - The Bronze tab

Song: The Bronze
Artist: The Killing Tree
Tabbed by: Rightclicked
This is a song from their demo, Bury Me At Make-Out Creek.

Tuning: Tune your guitar half a step down, and then to drop D.

> = about 8 times
~ = let ring

Intro: Guitar 1 (clean guitar)(repeat the whole intro)
|----------------------------------------|
|----------------------------------------|
|----------------------------------------|
|----------------------------------------|
|-6-55555-6-5-6-55555--------------------|
|----------------------------------------|

Intro: Guitar 2
|------------|
|------------|
|------------| Play after 1st guitar plays 2x
|-00-0000----|
|-00-0000----|
|-00-0000----|
  .. ....

|-------------------------|
|-------------------------|
|-777---------8888-7------|
|-777-666-333-xxxx-x------|
|-555-666-333-6666-5------|
|-----666-333-------------|

Intro: Guitar 1, second part           After 3rd time
|---------------------------------|   |--------------|
|---------------------------------|   |--------------|
|---------------------------------|3x |-------7------|
|---------------------------------|   |-----6--6~----|
|-6-55-6-5-3-5-6-8-55-6-5-3-5-6---|   |-6-5----------|
|---------------------------------|   |--------------|

Verse: (same as intro for guitar 1, part 2, but distortion)
[ Tab from: http://www.guitaretab.com/t/the-killing-tree/96832.html ]
                                       After 3rd time
|---------------------------------|   |--------------|
|---------------------------------|   |--------------|
|---------------------------------|3x |-------7------|
|---------------------------------|   |-----6--6~----|
|-6-55-6-5-3-5-6-8-55-6-5-3-5-6---|   |-6-5----------|
|---------------------------------|   |--------------|


Chorus: "Save yourself, you can't save me from myself"

Guitar 1:
|-----------|
|-----------|
|-----------|
|-00-00-00--|
|-00-00-00--|
|-00-00-00--|

Guitar 2:
|--------------------------------------------------------|
|------8----------------8----------------8-------8-------|
|--7-8---8-*pause*--7-8---8-*pause*--7-8---8-7-8---8-----|
|--------------------------------------------------------|
|--------------------------------------------------------|
|--------------------------------------------------------|

|-----------------------------------------------|
|-----------------------------------------------|
|--777777-9-10---------------------555555-7-8---| 4x
|--777777-9-10-888888888-333333333-555555-7-8---|
|--555555-7-8--888888888-333333333-333333-5-6---|
|--------------888888888-333333333--------------|

What to call this? How about the "interlude"?:

|-----------------------|
|-----------------------|
|-----------------------|
|-------------5-6-3-0---|
|-------------5-6-3-0---|
|-0>-0>-0>-0>-5-6-3-0---|

|----|
|----|
|----|
|-0~-|
|-0~-|
|-0~-|

Repeat Verse
Repeat Chorus

As for the outro, the chorus will be played just a little slower. Listen to how the 
are played to get it.

That's the entire song, entitled "The Bronze". It's an awesome song, and a lot simpler 
I thought it would be. Gotta love that dropped tuning...
Related for The Bronze tab
Advertisement will be closed in 10 seconds