Song name
# A B C D E F G H I J K L M N O P Q R S T U V W X Y Z

The Kills - Love Is A Deserter tab

----------------------------------------------------------------------------
                    LOVE IS A DESERTER - The Kills
----------------------------------------------------------------------------
Tabbed by: Alex
Email:

Tuning:  Standard's fine
Capo:  Fret 2.  Tabs are relative to capo.


Main Riff

e|--------------------|
B|--------------------|
G|--------------------|  With
D|--------------------|  variations.
A|------2---2---2-2---|
E|--0-0---0---0-------|


Riff 2 (at the end of sung lines).

e|--------------------------|
B|--------------------------|
G|--------------------------|
D|-4-4-0--------------------|
A|-------0------------------|
E|---------0-0-0 e.t.c -----|

Riff 3 ("If its personal...")

e|--------------------------------------------|
B|--------------------------------------------|
G|--------------------------------------------|
D|---0-3-5--5---5--5--5-4-3-2-----2---2---2-2-|
A|--------------------------------------------|
E|-3----------3---3-----------0-0---0---0-----|

Chorus

e|-----------------------------------|
B|-----------------------------------|
G|-----------------------------------|
D|-------0-2---2----0-2---2----------|
A|-----2---------2-------------------|
E|-0-0-------0---------0----0-0------|

e|--------------------|
B|--------------------|
G|----------------4---|
D|----7--7----5---5---|
A|--0---0-------------|
E|----------3---3-----|

Break

e|----------------    -----------------|
B|----------------    -----------------|
G|----------------  X  ----------------|
D|--5-5-5-5-7-----  3  ---------4--0---|
A|--5-5-5-5-7-----    ---------------0-|
E|------------/5/-    -0-0-0-0---------|

"One eye, as bright as a..."


e|----------------------------------------------------|
B|----------------------------------------------------|
G|----------------------------------------------------| Then back
D|--4-0---------4-4-0-------4-0---------4-4-0---------| to main riff.
A|------0-0-0-0-------0-0-0-----0-0-0-0-------0-0-0---|
E|----------------------------------------------------|
       P.M.           .....     .......       .....

End

   (Part1)
e|--------------------------|
B|--------------------------|
G|--------------------------| X
D|--------------------------| 2
A|--7~p5-5------------------|
E|---------5b-0-0-0-0-0-0-0-|

   (part2)
e|-------------------------|
B|-------------------------|
G|-------------------------|
D|-------------------------|
A|--7~5--------7~5---------|
E|-----0-0-0-0----0-0-0-0--|

Then back to Part1.


Pretty simple, hard part is keeping time and rhythms.

Droned open strings are palm muted.

Varations are pretty likely, this isn't particularly accurate.

Please correct mistakes yourself.

| /  slide up
| \  slide down
| h  hammer-on
| p  pull-off
| ~  vibrato
| +  harmonic
| x  Mute note
Tap to rate this tab
# A B C D E F G H I J K L M N O P Q R S T U V W X Y Z