Song name
# A B C D E F G H I J K L M N O P Q R S T U V W X Y Z

The Kills - Murdermile tab

-------------------------------------------------------------------------------
			     MURDERMILE - The Kills
-------------------------------------------------------------------------------

Tabbed by: Filip Mesko
Email: filip DOT mesko AT gmail DOT com

Tuning: B F# B E G# C# 
(Tune to drop D and then tune everything three half-steps
lower. This is to get the low, bassy tone that Jamies's got.)


Intro, bridge and ending riffs:

RIFF 1:

C# |-------------------------------------------------------------------|
G# |-------------------------------------------------------------------|
E  |-------------------------------------------------------------------|
B  |---3-3-3-3-7-7-7---5-5-5-5-7-7-7---5-5-5-5-7-7-7--3--3--3--7-7-7---|
F# |---3-3-3-3-7-7-7---5-5-5-5-7-7-7---5-5-5-5-7-7-7--3--3--3--7-7-7---|
B  |---3-3-3-3-7-7-7---5-5-5-5-7-7-7---5-5-5-5-7-7-7--3--3--3--7-7-7---|

RIFF 2:

C# |--------------------------------------------------------------------------|
G# |--------------------------------------------------------------------------|
E  |--------------------------------------------------------------------------|
B  |---3-3-3-3-7-7-7---5-5-5-5-7-7-7---5-5-5-5-7-7-7--3--3--12-15-12-10--12---|
F# |---3-3-3-3-7-7-7---5-5-5-5-7-7-7---5-5-5-5-7-7-7--3--3--12-15-12-10--12---|
B  |---3-3-3-3-7-7-7---5-5-5-5-7-7-7---5-5-5-5-7-7-7--3--3--12-15-12-10--12---|


Verse riffs:

RIFF 3:

C# |-----------------------------------|
G# |-----------------------------------|
E  |-----------------------------------|
B  |-----------------------------------| etc... (continue until next riff)
F# |-----------------------------------|
B  |---0---0---0---0---0---0---0---0---|

RIFF 4:

C# |-------------------|
G# |-------------------|
E  |-------------------|
B  |---12-15--12--12---|
F# |---12-15--12--12---|
B  |---12-15--12--12---|

RIFF 5:

C# |-------------------|
G# |-------------------|
E  |-------------------|
B  |---12-15--15--12---|
F# |---12-15--15--12---|
B  |---12-15--15--12---|

RIFF 6:

C# |---------------------|
G# |---------------------|
E  |---------------------|
B  |---12-15-12-10--12---|
F# |---12-15-12-10--12---|
B  |---12-15-12-10--12---|

RIFF 7:

C# |---------------------|
G# |---------------------|
E  |---------------------|
B  |---x-x---x-x---x-x---|
F# |---x-x---x-x---x-x---|
B  |---x-x---x-x---x-x---|


Chorus riffs:

RIFF 8:

C# |-----------------------------------|
G# |-----------------------------------|
E  |-----------------------------------|
B  |-----------------------------------| etc... (continue until next riff)
F# |-----------------------------------|
B  |---0-0-0-0-0-0-0-0-0-0-0-0-0-0-0---|

RIFF 9:

C# |-----------------------------------|
G# |-----------------------------------|
E  |-----------------------------------|
B  |---------------------------5-5-5---| etc... (continue until next riff
F# |---------------------5-5-5-5-5-5---|         and build up to chord at
B  |---5-5-5-5-5-5-5-5-5-5-5-5-5-5-5---|         the end)

RIFF 10:

C# |-----------------------------------|
G# |-----------------------------------|
E  |-----------------------------------|
B  |-----------------------------------| etc...
F# |-----------------------------------|
B  |---5-5-5-5-5-5-5-5-5-5-5-5-5-5-5---|

RIFF 11:


C# |---------------------------|
G# |---------------------------|
E  |---------------------------|
B  |---------------------------|
F# |---7-5-0-------------------|
B  |---------5--3--7-0-0-0-0---|

RIFF 12:

C# |---------------------------|
G# |---------------------------|
E  |---------------------------|
B  |---------------------------|
F# |---7-5-0-------------------|
B  |---------5--3--0-0-0-0-0---|


Progression:

	INTRO:
	RIFF 1 * 2

	VERSE 1:
	RIFF 3	"This ain't murdermile..."
	RIFF 4
	RIFF 7
	RIFF 4
	RIFF 7
	RIFF 5
	RIFF 7
	RIFF 4
	RIFF 7
	RIFF 6

	CHORUS 1:
	RIFF 8	"It's a train wreck..."
	RIFF 9
	RIFF 8
	RIFF 10
	RIFF 11
	RIFF 8
	RIFF 12

	BRIDGE 1:
	RIFF 1
	RIFF 2

	VERSE 2:
	RIFF 3	"You look bluer..."
	RIFF 4
	RIFF 7
	RIFF 4
	RIFF 7
	RIFF 5
	RIFF 7
	RIFF 5
	RIFF 7
	RIFF 6

	CHORUS 2:
	RIFF 8	"It's a train wreck..."
	RIFF 9
	RIFF 8
	RIFF 10
	RIFF 11
	RIFF 8
	RIFF 11
	RIFF 12
	
	BRIDGE 2:
	RIFF 1 * 2	WITH BASE NOTES ONLY!
	RIFF 1
	RIFF 2

	VERSE 3:
	Basically the the same as VERSE 2

	CHORUS 2:
	RIFF 8	"It's a train wreck..."
	RIFF 12
	RIFF 8
	RIFF 12
	RIFF 8
	RIFF 10
	RIFF 12
	RIFF 12 
	
	ENDING:
	RIFF 1 * 2



Good luck!
Please e-mail or comment suggestions etc...


| ^  bend
| /  slide up
| \  slide down
| h  hammer-on
| p  pull-off
| ~  vibrato
| +  harmonic
| x  Mute note
===============================================================================
Tap to rate this tab
# A B C D E F G H I J K L M N O P Q R S T U V W X Y Z