Song name
# A B C D E F G H I J K L M N O P Q R S T U V W X Y Z

The Kills - Goodnight Bad Morning Live tab

Goodnight Bad Morning (Live), by The Kills
Tabbed by Victor Troy (victorlab@hotmail.fr)
Tunning : Drop B : B F# B E G# C#

Jamie Part

Intro, Verse

|-----------------|------------------------|
|-----------------|------------------------|
|-----------------|------------------------|
|-5-5-5-5-5-5-5-0-|-10-10-10-10-10-10-10-0-|
|-5-5-5-5-5-5-5-0-|-10-10-10-10-10-10-10-0-|
|-5-5-5-5-5-5-5-0-|-10-10-10-10-10-10-10-0-|

|-----------------|------------------------|
|-----------------|------------------------|
|-----------------|------------------------|
|-5-5-5-5-5-5-5-0-|-10-10-10-10-10-0-12-12-|
|-5-5-5-5-5-5-5-0-|-10-10-10-10-10-0-12-12-|
|-5-5-5-5-5-5-5-0-|-10-10-10-10-10-0-12-12-|


Chorus


|-------7---------|------------------------|
|-------------3---|-----------------8---10-|
|-----------------|--9---------------------|
|-5-5-5-5-5-5-5-0-|-10-10-10-10-10-10-10-0-|
|-5-5-5-5-5-5-5-0-|-10-10-10-10-10-10-10-0-|
|-5-5-5-5-5-5-5-0-|-10-10-10-10-10-10-10-0-|

|-------7---7-----|------------------------|
|-------------3---|------------------------|
|-----------------|--9---------------------|
|-5-5-5-5-5-5-5-0-|-10-10-10-10-10-0-12-12-|
|-5-5-5-5-5-5-5-0-|-10-10-10-10-10-0-12-12-|
|-5-5-5-5-5-5-5-0-|-10-10-10-10-10-0-12-12-|


Bridge

|-----------------|------------------------|
|-------7---7-7---|----------12-10----10---|
|-----------------|------------------------|
|-5-5-5-5-5-5-5-0-|-10-10-10-10-10-10-10-0-|
|-5-5-5-5-5-5-5-0-|-10-10-10-10-10-10-10-0-|
|-5-5-5-5-5-5-5-0-|-10-10-10-10-10-10-10-0-|

|-----------------|--0---------------------|
|-------5---5-5---|--0---------------------|
|-----------------|--9---------------------|
|-5-5-5-5-5-5-5-0-|-10-10-10-10-10-0-12-12-|
|-5-5-5-5-5-5-5-0-|-10-10-10-10-10-0-12-12-|
|-5-5-5-5-5-5-5-0-|-10-10-10-10-10-0-12-12-|

x2

Alison Part :


Just this during all the song

|-----------------|-------------------|
|-----------------|-------------------|
|-----------------|-5-5-5-5-5-5-5-5-5-|
|-5-5-5-5-5-5-5-5-|-5-5-5-5-5-5-5-5-5-|
|-5-5-5-5-5-5-5-5-|-3-3-3-3-3-3-3-3-3-|
|-5-5-5-5-5-5-5-5-|-------------------|
Tap to rate this tab
 
# A B C D E F G H I J K L M N O P Q R S T U V W X Y Z