Guitaretab - guitar tabs
Song name
# A B C D E F G H I J K L M N O P Q R S T U V W X Y Z

The Kills - Ura Fever tab

The Kills - URA Fever, by Victor Troy (victorlab@hotmail.fr)

Drop B (B F# B E G# C#)

Jamie plays it with a POG (Input: 2,on the middle; Dry out put: 0; Sub Octave: 5,max; +1 

octave & +1 octave detuned: 0; +2 octaves: 1; +2 octaves detuned: 2,on the middle)

Verse

|------------------------|------------------------|
|------------------------|------------------------|
|------------------------|------------------------|
|------------------------|------------------------|
|12-12-12-12-12-12-12-12-|------------------------|
|------------------------|10-10-10-10-10-10-10-10-|x4
PM................................................

|------------------------|------------------------|
|------------------------|------------------------|
|------------------------|------------------------|
|------------10----12----|------------------------|
|12-12-12-12-------------|------------------------|
|------------------------|10-10-10-10-10-10-10-10-|x4
PM.........               PM......................

Chorus

|------------------------|------------------------|
|------------------------|------------------------|
|------------------------|------------------------|
|------------------------|------------------------|
|12-12-12-12-15-12-15-12-|------------------------|
|------------------------|12-12-12-12-15-12-15-12-|
PM................................................
                                                     x2
|------------------------|------------------------|
|------------------------|------------------------|
|------------------------|------------------------|
|------------------------|------------------------|
|12-12-12-12-15-12-15b---|------------------------|
|------------------------|12-12-12-12-15-12-15-12-|
PM................................................

|------------------------|------------------------|
|------------------------|------------------------|
|------------------------|------------------------|
|------------12b-12r-----|------------------------|
|12-12-12-12-------------|------------------------|
|------------------------|12-12-12-12-15-12-15-12-|x4
PM..........             PM.......................


Verse another time


Then the kind of solo, played with a Boss DD-3 for the fast delay parts (E.Level max., 

F.Back Max, D.Time at 9o'clock and Mode M:200ms)
[ Tab from: http://www.guitaretab.com/t/the-kills/107329.html ]
|--------0--------------|12-------12--------------|
|--------8--------------|13-------13--------------|
|--------0--------------|12-------14--------------|
|7-------0------0-0-0-0-|12-------14------0-0-0-0-|
|7--------------0-0-0-0-|12-------14------0-0-0-0-|
|7--------------0-0-0-0-|12-------12------0-0-0-0-|
                PM......                  PM......

|7------7---------------|-9-----10----------------|
|8------8---------------|10-----11----------------|
|7------7---------------|-9-----10----------------|
|7------7-------0-0-0-0-|-9-----10--------0-0-0-0-|
|7------7-------0-0-0-0-|-9-----10--------0-0-0-0-|
|7------7-------0-0-0-0-|-9-----10--------0-0-0-0-|
                PM......                  PM......

|7------7---------------|-9------0----------------|
|8------8---------------|10-----10----------------|
|7------7---------------|-9------0----------------|
|7------7-------0-0-0-0-|-9------0--------0-0-0-0-|
|7------7-------0-0-0-0-|-9------0--------0-0-0-0-|
|7------7-------0-0-0-0-|-9------0--------0-0-0-0-|
                PM......                  PM......

|7------0---------------|------------------------|
|8------8---------------|------------------------|
|7------0---------------|------------------------|
|7------0-------0-0-18--|-18---------------------|
|7------0-------0-0-18--|-18---------------------|
|7------0-------0-0-18--|-18---------------------|
               PM..


End

|------------------------|------------------------|
|------------------------|------------------------|
|------------------------|------------------------|
|------------------------|------------------------|
|12-12-12-12-15-12-15-12-|------------------------|
|------------------------|12-12-12-12-15-12-15-12-|
PM.................................................   x2

|------------------------|------------------------|
|------------------------|------------------------|
|------------------------|------------------------|
|------------------------|------------------------|
|12-12-12-12-15-12-15b---|------------------------|
|------------------------|12-12-12-12-15-12-15-12-|
PM.................................................

|------------------------|------------------------|
|------------------------|------------------------|
|------------------------|------------------------|
|------------10----12----|------------------------|
|12-12-12-12-------------|------------------------|
|------------------------|12-12-12-12-15-12-15-12-|
PM..........              ..........................
                                               12\|


If you want to see the result, check me playing it : http://fr.youtube.com/watch?v=zOctY1v0kXA

You can also download the sampler part by part on the website 

http://www.midnightboom.com/urafever/
Related for Ura Fever tab
Advertisement will be closed in 10 seconds