Song name
# A B C D E F G H I J K L M N O P Q R S T U V W X Y Z

The Kills - Tape Song tab

Artist: The Kills
Song; Tape Song
Album: Midnight Boom (2008)
Tunning: C# with Drop-B Bass
Tabbed By : Indie Nation


  
Intro:

C#|------------------|------------------|
G#|------------------|------------------|
E |------------------|------------------|
B |------------------|------------------|
F#|------------------|------------------|
B |--9-9-9-9-9-9-9-9-|--9-9-9-9-9-9-9-9-|

C#|------------------------|
G#|------------------------|
E |------------------------|
B |------------------------|
F#|------------------------|
B |--9-9-9-9-9-\12-12-12---|

C#|----------------------|----------------------|----------------------|
G#|----------------------|----------------------|----------------------|
E |--12-12---12-12\11~~~-|--12-12---12-12\11~~~-|--12-12---12-12\11~~~-|
B |----------------------|----------------------|----------------------|
F#|----------------------|----------------------|----------------------|
B |----------------------|----------------------|----------------------|

C#|-------------------------|
G#|-------------------------|
E |------12---12-12\11~~~\0-|
B |--/12-12---12------------|
F#|-------------------------|
B |-------------------------|



Verse:

C#|------------------------|
G#|------------------------|
E |------------------------|
B |------------------------| x 8
F#|------------------------|
B |--9-9-9-9-\12-12-12-12--|



Pre-Chorus:

C#|-----10-10-------|-----10-10--------|-------10-10----------|
G#|-----------12-10-|-----------12-10--|---------------12-10--|
E |-----------------|------------------|----------------------|
B |--9-9------------|-9-9--------------|-9--9-9---------------|
F#|-----------------|------------------|----------------------|
B |-----------------|------------------|----------------------|

C#|-----10-10-------|-----10-10--------|-------10-10----------|
G#|-----------12-10-|-----------12-10--|---------------12-10--|
E |-----------------|------------------|----------------------|
B |--9-9------------|-9-9--------------|-9--9-9---------------|
F#|-----------------|------------------|----------------------|
B |-----------------|------------------|----------------------|

C#|-----10-10-------|----10-----------10--------|
G#|-----------12-10-|-12----12-10--12----12-10--|
E |-----------------|---------------------------|
B |--9-9------------|---------------------------|
F#|-----------------|---------------------------|
B |-----------------|---------------------------|



Chorus:

C#|-------------------------------|---------------------------------|
G#|--12-12--x--12--12-------------|--12-12--x--12--12---------------|
E |--12-12--x--12--12-------7-----|--12-12--x--12--12--\7b9r7-------|
B |--12-12--x--12--12--7-\9---9-7-|--12-12--x--12--12---------9-7---|
F#|--10-10--x--10--10-------------|--10-10--x--10--10---------------|
B |-------------------------------|---------------------------------|

C#|-----------------------------------|-------------------------|
G#|--12-12--x--12--12-----------------|--12-12--x--12--12-------|
E |--12-12--x--12--12------7b---7b----|--12-12--x--12--12-------|
B |--12-12--x--12--12--7\9----9----9b-|--12-12--x--12--12-------|
F#|--10-10--x--10--10-----------------|--10-10--x--10--10-------|
B |-----------------------------------|-------------------------|



Verse:

C#|------------------------|
G#|------------------------|
E |------------------------|
B |------------------------| x 8
F#|------------------------|
B |--9-9-9-9-\12-12-12-12--|



Pre-Chorus:

C#|-----10-10-------|-----10-10--------|-------10-10----------|
G#|-----------12-10-|-----------12-10--|---------------12-10--|
E |-----------------|------------------|----------------------|
B |--9-9------------|-9-9--------------|-9--9-9---------------|
F#|-----------------|------------------|----------------------|
B |-----------------|------------------|----------------------|

C#|-----10-10-------|-----10-10--------|-------10-10----------|
G#|-----------12-10-|-----------12-10--|---------------12-10--|
E |-----------------|------------------|----------------------|
B |--9-9------------|-9-9--------------|-9--9-9---------------|
F#|-----------------|------------------|----------------------|
B |-----------------|------------------|----------------------|

C#|-----10-10-------|----10-----------10--------|
G#|-----------12-10-|-12----12-10--12----12-10--|
E |-----------------|---------------------------|
B |--9-9------------|---------------------------|
F#|-----------------|---------------------------|
B |-----------------|---------------------------|



Chorus:

C#|-------------------------------|---------------------------------|
G#|--12-12--x--12--12-------------|--12-12--x--12--12---------------|
E |--12-12--x--12--12-------7-----|--12-12--x--12--12--\7b9r7-------|
B |--12-12--x--12--12--7-\9---9-7-|--12-12--x--12--12---------9-7---|
F#|--10-10--x--10--10-------------|--10-10--x--10--10---------------|
B |-------------------------------|---------------------------------|

C#|-----------------------------------|-------------------------|
G#|--12-12--x--12--12-----------------|--12-12--x--12--12-------|
E |--12-12--x--12--12------7b---7b----|--12-12--x--12--12-------|
B |--12-12--x--12--12--7\9----9----9b-|--12-12--x--12--12-------|
F#|--10-10--x--10--10-----------------|--10-10--x--10--10-------|
B |-----------------------------------|-------------------------|



Solo \ Break Riff:

C#|---------------------------------------------|
G#|--7--------7-----------7--------7------------|
E |--7--------7-----------7--------7-----7b9r7--|
B |--7--------7-----------7--------7------------|
F#|------5-7----5-5h7-5-------5-7------5--------|
B |----7----------------7---7--------7----------|

                                               ** played behond the bridge
C#|-----------------------------------x-x---x-(0)-|
G#|--7--------7-----------7--------7--x-x---x-(0)-|
E |--7--------7-----------7--------7--x-x---x-(0)-|
B |--7--------7-----------7--------7--x-x---x-(0)-|
F#|------5-7----5-5h7-5-------5-7-----x-x---x-(0)-|
B |----7----------------7---7---------------------|



Verse:

C#|------------------------|
G#|------------------------|
E |------------------------|
B |------------------------| x 8
F#|------------------------|
B |--9-9-9-9-\12-12-12-12--|



Pre-Chorus:

C#|-----10-10-------|-----10-10--------|-------10-10----------|
G#|-----------12-10-|-----------12-10--|---------------12-10--|
E |-----------------|------------------|----------------------|
B |--9-9------------|-9-9--------------|-9--9-9---------------|
F#|-----------------|------------------|----------------------|
B |-----------------|------------------|----------------------|

C#|-----10-10-------|-----10-10--------|-------10-10----------|
G#|-----------12-10-|-----------12-10--|---------------12-10--|
E |-----------------|------------------|----------------------|
B |--9-9------------|-9-9--------------|-9--9-9---------------|
F#|-----------------|------------------|----------------------|
B |-----------------|------------------|----------------------|

C#|-----10-10-------|----10-----------10--------|
G#|-----------12-10-|-12----12-10--12----12-10--|
E |-----------------|---------------------------|
B |--9-9------------|---------------------------|
F#|-----------------|---------------------------|
B |-----------------|---------------------------|



Chorus:

C#|-------------------------------|---------------------------------|
G#|--12-12--x--12--12-------------|--12-12--x--12--12---------------|
E |--12-12--x--12--12-------7-----|--12-12--x--12--12--\7b9r7-------|
B |--12-12--x--12--12--7-\9---9-7-|--12-12--x--12--12---------9-7---|
F#|--10-10--x--10--10-------------|--10-10--x--10--10---------------|
B |-------------------------------|---------------------------------|

C#|-----------------------------------|-------------------------|
G#|--12-12--x--12--12-----------------|--12-12--x--12--12-------|
E |--12-12--x--12--12------7b---7b----|--12-12--x--12--12-------|
B |--12-12--x--12--12--7\9----9----9b-|--12-12--x--12--12-------|
F#|--10-10--x--10--10-----------------|--10-10--x--10--10-------|
B |-----------------------------------|-------------------------|

C#|-------------------------------|---------------------------------|
G#|--12-12--x--12--12-------------|--12-12--x--12--12---------------|
E |--12-12--x--12--12-------7-----|--12-12--x--12--12--\7b9r7-------|
B |--12-12--x--12--12--7-\9---9-7-|--12-12--x--12--12---------9-7---|
F#|--10-10--x--10--10-------------|--10-10--x--10--10---------------|
B |-------------------------------|---------------------------------|

C#|-----------------------------------|--------------------------|
G#|--12-12--x--12--12-----------------|--12-12--x--12--12\-------|
E |--12-12--x--12--12------7b---7b----|--12-12--x--12--12\-------|
B |--12-12--x--12--12--7\9----9----9b-|--12-12--x--12--12\-------|
F#|--10-10--x--10--10-----------------|--10-10--x--10--10\-------|
B |-----------------------------------|--------------------------|

Tap to rate this tab
# A B C D E F G H I J K L M N O P Q R S T U V W X Y Z